E-Chords
Supersonic

Rock 'N' Roll(Tabs)

Supersonic

Key: G5
Transcribed: 11 May 2004 
 
Notes: Below are the chords to play along to this song, I haven't 
done any lead bits or the solo. Play along to the song to get the 
strumming correct. 
 
INTRO: 
    G5  D5  A5  E5  B5 
E-|---------------------|- 
B-|---------------------|- 
G-|-----7-------9---4---|- 
D-|-5---7---7---9---4---|- 
A-|-5---5---7---7---2---|- 
E-|-3-------5-----------|- 
 
VERSES: 
    B                      A              E 
E-|-2---2-2-2-2-|-      -|------------------------|- 
B-|-4---4-4-4-5-|-      -|-10-10-10-10----5-5-5-5-|- 
G-|-4---4-4-4-4-|- x 6  -|-9--9--9--9-----4-4-4-4-|- 
D-|-4---4-4-4-4-|-      -|-7--7--7--7-----2-2-2-2-|- 
A-|-2---2-2-2-2-|-      -|-7--7--7--7-----2-2-2-2-|- 
E-|-------------|-      -|------------------------|- 
 
    B                      A              F# 
E-|-2---2-2-2-2-|-      -|------------------------|- 
B-|-4---4-4-4-5-|-      -|-10-10-10-10----2-2-2-2-|- 
G-|-4---4-4-4-4-|- x 2  -|-9--9--9--9-----3-3-3-3-|- 
D-|-4---4-4-4-4-|-      -|-7--7--7--7-----4-4-4-4-|- 
A-|-2---2-2-2-2-|-      -|-7--7--7--7-----4-4-4-4-|- 
E-|-------------|-      -|----------------2-2-2-2-|- 
 
CHORUS CHORDS: 
    B            A            E            G5  D5  A5  E5  
E-|------------------------------------------------------|- 
B-|-4--4--4--4---2--2--2--2---0--0--0--0-----------------|- 
G-|-4--4--4--4---2--2--2--2---1--1--1--1-------7-------9-|- 
D-|-4--4--4--4---2--2--2--2---2--2--2--2---5---7---7---9-|- 
A-|-2--2--2--2---0--0--0--0---2--2--2--2---5---5---7---7-|- 
E-|---------------------------0--0--0--0---3-------5-----|- 
 
 

roll up this ad to continue

share this page

See Also: