E-Chords
Sun Kil Moon

I Can't Live Without My Mother's Love(Tabs)

Sun Kil Moon

roll up this ad to continue

 

Intro: 

d|-----------0-------------0-------------0-------------0---------------------| 
A|-------3-------------0-------------2-------------0-------------------------| 
G|---0-----0-------0-----0-------0-----0-------0-----0-----------------------|  
D|-----0-------------0-------------0-------------0---------------------------| x3 
A|-0-------------0------------2--------------2-------------------------------| 
D|---------------------------------------------------------------------------| 

d|------------0-------------0--------------0------------0--------------------| 
A|--------0-------------0--------------0-------------0-----------------------| 
G|----0-----0-------0-----0--------0-----0--------0--------------------------| 
D|------0-------------0--------------0--------------0------------------------| x1 
A|---------------------------------------------------------------------------| 
D|--2------------0-------------2---------------0-----------------------------| 

Verse: 

d|-----------0-------------0-------------0-------------0---------------------| 
A|-------3-------------0-------------2-------------0-------------------------| 
G|---0-----0-------0-----0-------0-----0-------0-----0-----------------------|  
D|-----0-------------0-------------0-------------0---------------------------| x3 
A|-0-------------0------------2--------------2-------------------------------| 
D|---------------------------------------------------------------------------| 

d|------------0-------------0--------------0------------0--------------------| 
A|--------0-------------0--------------0-------------0-----------------------| 
G|----0-----0-------0-----0--------0-----0--------0--------------------------| 
D|------0-------------0--------------0--------------0------------------------| x2 
A|---------------------------------------------------------------------------| 
D|--2------------0-------------2---------------0-----------------------------| 

d|-----------0-------------0-------------0-------------0---------------------| 
A|-------3-------------0-------------2-------------0-------------------------| 
G|---0-----0-------0-----0-------0-----0-------0-----0-----------------------|  
D|-----0-------------0-------------0-------------0---------------------------| x3 
A|-0-------------0------------2--------------2-------------------------------| 
D|---------------------------------------------------------------------------| 

d|------------0-------------0--------------0------------0--------------------| 
A|--------0-------------0--------------0-------------0-----------------------| 
G|----0-----0-------0-----0--------0-----0--------0--------------------------| 
D|------0-------------0--------------0--------------0------------------------| x2 
A|---------------------------------------------------------------------------| 
D|--2------------0-------------2---------------0-----------------------------| 

Chorus: 

d|------------0-------------0--------------0------------0--------------------| 
A|--------0-------------0--------------0-------------0-----------------------| 
G|----0-----0-------0-----0--------0-----0--------0--------------------------| 
D|------0-------------0--------------0--------------0------------------------| 
A|--3------------2-------------0---------------2-----------------------------| 
D|---------------------------------------------------------------------------| 

d|------------0-------------0--------------0------------0--------------------| 
A|--------0-------------0--------------0-------------0-----------------------| 
G|----0-----0-------0-----0--------0-----0--------0--------------------------| 
D|------0-------------0--------------0--------------0------------------------|  
A|---------------------------------------------------------------------------| 
D|--2------------0-------------2---------------0-----------------------------| 

d|------------0-------------0--------------0------------0--------------------| 
A|--------0-------------0--------------0-------------0-----------------------| 
G|----0-----0-------0-----0--------0-----0--------0--------------------------| 
D|------0-------------0--------------0--------------0------------------------| 
A|--3------------2-------------0---------------2-----------------------------| 
D|---------------------------------------------------------------------------| 

d|------------0-------------0--------------0------------0--------------------| 
A|--------0-------------0--------------0-------------0-----------------------| 
G|----0-----0-------0-----0--------0-----0--------0--------------------------| 
D|------0-------------0--------------0--------------0------------------------| x2  
A|---------------------------------------------------------------------------| 
D|--2------------0-------------2---------------0-----------------------------| 


************************************ 

| /   slide up 
| \   slide down 
| h   hammer-on 
| p   pull-off 
| ~   vibrato 
| +   harmonic 
| x   Mute note 
| b   Bend 
| pb  Pre-bend 
| br  Bend release 
| pbr Pre-bend release 
| brb Bend release bend 

************************************ 
share this page

See Also: