E-Chords
Sun Kil Moon

Glenn Tipton(Tabs)

Sun Kil Moon

roll up this ad to continue

 

Verse: 
D|--0----0----| 
A|--0----0----| 
G|--2----0----| 
D|--4----5----| 
A|--0----5----| 
D|--0----5----| 

end of Verse: 
D|--0--------------------------0-| 
A|--0--------------------------0-| 
G|--2----------------------0---2-| 
D|--4-----------0----0--2--2---4-| 
A|--0----0--2--------------0---0-| 
D|--0--------------------------0-| 
...just like my dad did... 

Chorus: 
D|--0----0----0----0-| 
A|--0----0----0----0-| 
G|--2----0----0----2-| 
D|--4----7----5----4-| 
A|--0----7----5----0-| 
D|--0----7----5----0-| 
just like my dad did 

D|--0----0----0-| 
A|--0----0----0-| 
G|--2----0----0-| 
D|--4----5----2-| 
A|--0----5----2-| 
D|--0----5----2-| 
staying up thinking 
share this page

See Also: