E-Chords
Sun Club

Glob(Tabs)

Sun Club

roll up this ad to continue

Short simple song played as the intro to the album and first song. 

Intro 

e|--------------------|--------------------------|-----------------------------------------------| x3 
B|--------------------|--------------------------|-----------------------------------------------| 
G|--------------------|--------------------------|-----------------------------------------------| 
D|---------9--------9-|-----------14----------12-|----------18----------18---------18---------18-| 
A|----9---------9-----|-----14-----------12------|-----18---------18----------18---------18------| 
E|-10---10---10---10--|-/15----15----\14----14---|-/17----17---17----17----17----17---17----17---| 

e|--------------------|--------------------------|----------------------------| 
B|--------------------|--------------------------|----------------------------| 
G|--------------------|--------------------------|----------------------------| 
D|---------9--------9-|-----------14----------12-|----------18-18--18--18--18-| 
A|----9---------9-----|-----14-----------12------|-----18------18--18--18--18-| 
E|-10---10---10---10--|-/15----15----\14----14---|-/17----17---17--17--17--17-| 

Can also be played up a string like this, it's a bit easier to transition to Summer Feet. 

e|----------------|--------------------|-----------------------------------------------| 
B|----------------|--------------------|-----------------------------------------------| 
G|-------4------4-|----------9-------7-|----------11----------11--------11---------11--| 
D|---4-------4----|-----9---------7----|-----11---------11---------11---------11-------| 
A|-5---5---5---5--|-/10---10---\9---9--|-/12----12---12----12---12----12---12----12----| 
E|----------------|--------------------|-----------------------------------------------| 

************************************ 

| /   Slide up 
| \   Slide down 

************************************ 
share this page

See Also: