E-Chords
Sugar Kane

Minha Liberdade(Tabs)

Sugar Kane

Key: G
1ª Guitarra - G   2ª Guitarra - G2 
 
Intro    
1ª Guitarra - Riff 1 
e|-------------------------------------| 
B|-------------------------------------| 
G|-------------------------------------| 
D|-------------------------------------| X12 
A|0-12-0-15-0-12-0-17-0-12-0-10-0-14-0-| 
E|-------------------------------------| 
 
2ª Guitarra 
F, G|- X1 
A, C, G, E|- X2 
 
A                     C 
Esqueça todos os seus medos 
        G                 E  
seus conceitos, nossa missão será mudar 
A                  C 
As atitudes que herdamos 
         G             E 
nosso passado se repetirá 
G  - Riff 2 
            A         C  
enquanto improvisarmos soluções 
G                E 
para problemas reais, perdidos 
 
Riff 2 
e|-----------------------------------------------------------------------------------------------------| 
B|-----------------------------------------------------------------17-------17-------17-------17-------| 
G|-----------------------------------------------------------------19h21h19-19h21h19-19h21h19-19h21h19-| 
D|1214-1214-1214-1214-1717-15-15-1517-15-15-1919-1919-1919-1919-------------------------------------| 
A|1212-1212-1212-1212-1515-15-15-1515-15-15-1717-1717-1717-1717-------------------------------------| 
E|-----------------------------------------------------------------------------------------------------| 
F        C 
Eu vou fechar os olhos 
G  - Riff 3 
A       G 
Tentar imaginar 
F           C 
Que a minha liberdade 
G  - Riff 4 
A            G 
Só depende daquilo que penso 
 
Riff 3 
e|--------------------------------------| 
B|--------------------------------------| 
G|x-x-9-9-x-x-9-9-x-x-7-x-x-7-x-x-7-5-5-| 
D|x-x-----x-x-----x-x---x-x---x-x-------| 
A|x-x-7-7-x-x-7-7-x-x-5-x-x-5-x-x-5-3-3-| 
E|--------------------------------------| 
 
Riff 4 
e|-------------------------------------------------------------------------------------------------| 
B|-------------------------------------------------------------------------------------------------| 
G|-------------------------------------------------------------------------------------------------| 
D|---------------------------------------------------------------------7-7-7-7-9-9-9-9-10-10-10-10-| 
A|-----------------------5-5-5-5-7-7-7-7-8-7-7-7-7-8-8-8-8-10-10-10-10----------------------------| 
E|5-5-5-5-7-7-7-7-8-8-8-8--------------------------------------------------------------------------| 
 
G  - Riff 1 
e|-------------------------------------| 
B|-------------------------------------| 
G|-------------------------------------| 
D|-------------------------------------| X4 
A|0-12-0-15-0-12-0-17-0-12-0-10-0-14-0-| 
E|-------------------------------------| 
 
G2 
A            F  G 
 
A                   C 
Nós pagaremos pelos erros  
            G                E 
que não cometemos e nosssa razão 
          A                  C 
será mais forte que todas as emoções 
G                 E              A 
que não podemos negar, instintos e 
G  - Riff 2 
        C         G 
impulsos naturais que nos fizeram 
   E 
vencer o mundo 
 
F        C 
Eu vou fechar os olhos 
G  - Riff 3 
A       G 
Tentar imaginar 
F           C 
Que a minha liberdade 
G  - Riff 4 
A            G 
Só depende daquilo que penso 
 
G  - Riff 5 - X2 
e|-------------------------------------------------| 
B|-------------------------------------------------| 
G|--------------------10---------------------------| 
D|7-9-10-9-7-9-10-9-10-----------------------------| 
A|----------------------101010x-x-101010x-x-101010-| 
E|----------------------8-8-8-x-x-7-7-7-x-x-7-7-7--| 
 
G  - Riff 6  
e|---------------------------------------------------------------------------| 
B|---------------------------------------------------------------------------| 
G|--10-10h9---9h10h9---------------------------------10-10h9---9h10h9--------| 
D|10--------10-------10-----------------------------10--------10-------12~---| 
A|----------------------101010x-x-101010x-x-101010---------------------------| 
E|----------------------8-8-8-x-x-7-7-7-x-x-7-7-7----------------------------| 
 
G  - X4 
F    C  C/B 
 
G2 - X12 
F    C  C/B 
 
G  e G2 
G 
 
Solo - mto rápido  
  G  faz:              |G  e G2 fazem:  
e|-------------------------------------------| 
B|-------------------------------------------| 
G|9h7h5-7h5h4-5h4h2-0-2-9h7h5-7h5h4-5h4h2----| 
D|---------------------------------------0-2-| 
A|-------------------------------------------| 
E|-------------------------------------------| 
 
A         C             G         E 
  Consumir, para existir, resistir para viver X8 
 
Termina em A 
 
_______________________________________________________ 
Contribuição: Marcelo([email protected]) 

roll up this ad to continue

share this page

See Also: