E-Chords
Stria

Medical Art(Tabs)

Stria

Key: D
Tabbed by: theefires168 
E-mail: [email protected] 

Tuning: Drop D 

Intro 
e|---------------------------------------------------------------------------| 
B|---------------------------------------------------------------------------| 
G|---------------------------------------------------------------------------| 
D|---------------------------------------------------------------------------| 2x 
A|-00-77-55-0-8-7-5-0-5-7-00-77-55-0-8-7-5-7-3-------------------------------| 
D|---------------------------------------------------------------------------| 

verse 1 
e|---------------------------------------------------------------------------| 
B|---------------------------------------------------------------------------| 
G|---------------------------------------------------------------------------| 
D|---------------------------------------------------------------------------| 
A|-00-77-55-0-8-7-5-0-5-7-00-77-55-0-8-7-5-7-3--00-77-55-0-8-7-5-0-5-7-------| 
E|---------------------------------------------------------------------------| 

e|---------------------------------------------------------------------------| 
B|---------------------------------------------------------------------------| 
G|---------------------------------------------------------------------------| 
D|----------------------3-----10----5----------------------------------------| 2x 
A|-00-77-55-0-8-7-0-5-7-3-16x-10-8x-5-8x-------------------------------------| 
E|----------------------3-----10----5----------------------------------------| 

pre Chorus (play this right after the end of the verse) And ill breath these words within 
e|---------------------------------------------------------------------------| 
B|---------------------------------------------------------------------------| 
G|---------------------------------------------------------------------------| 
D|-3-3-3-3-3-3-3-3-5-5-5-5-5-5-5-5-------------------------------------------| 
A|-3-3-3-3-3-3-3-3-5-5-5-5-5-5-5-5-------------------------------------------| 
D|-3-3-3-3-3-3-3-3-5-5-5-5-5-5-5-5-------------------------------------------| 

Chorus 
e|---------------------------------------------------------------------------| 
B|---------------------------------------------------------------------------| 
G|---------------------------------------------------------------------------| 
D|-7-7-x-77-10-10-x-1010-5-5-x-55--0-0-x0-----2x-----------------------------| 
A|-7-7-x-77-10-10-x-1010-5-5-x-55--0-0-x0------------------------------------| 
D|-7-7-x-77-10-10-x-1010-5-5-x-55--0-0-x0------------------------------------| 

e|---------------------------------------------------------------------------| 
B|---------------------------------------------------------------------------| 
G|---------------------------------------------------------------------------| 
D|-7-7-x-x-10-10-x-x-5-5-x-x-0-0-x0---------2x-------------------------------| 
A|-7-7-x-x-10-10-x-x-5-5-x-x-0-0-x0------------------------------------------| 
D|-7-7-x-x-10-10-x-x-5-5-x-x 0-0-x0------------------------------------------| 

verse 2 
e|---------------------------------------------------------------------------| 
B|---------------------------------------------------------------------------| 
G|---------------------------------------------------------------------------| 
D|------------------------------------------------2x-----3-----10----5-------| 
A|-00-77-55-0-8-7-5-0-5-7-00-77-55-0-8-7-5-7-3-----------3-16x-10-8x-5-8x----| 
D|-------------------------------------------------------3-----10----5-------| 

e|---------------------------------------------------------------------------| 
B|---------------------------------------------------------------------------| 
G|---------------------------------------------------------------------------| 
D|-7-7-7-7--7-7-7--7-7-7--7/8----4x-----3-----10----5------------------------| 
A|-7-7-7-7--7-7-7--7-7-7--7/8-----------3-16x-10-8x-5-8x---------------------| 
D|-7-7-7-7--7-7-7--7-7-7--7/8-----------3-----10----5------------------------| 

Chorus 
e|---------------------------------------------------------------------------| 
B|---------------------------------------------------------------------------| 
G|---------------------------------------------------------------------------| 
D|-7-7-x-77-10-10-x-1010-5-5-x-55--0-0-x0-----2x-----------------------------| 
A|-7-7-x-77-10-10-x-1010-5-5-x-55--0-0-x0------------------------------------| 
D|-7-7-x-77-10-10-x-1010-5-5-x-55--0-0-x0------------------------------------| 

e|---------------------------------------------------------------------------| 
B|---------------------------------------------------------------------------| 
G|---------------------------------------------------------------------------| 
D|-7-7-x-x-10-10-x-x-5-5-x-x-0-0-x0---------2x-------------------------------| 
A|-7-7-x-x-10-10-x-x-5-5-x-x-0-0-x0------------------------------------------| 
D|-7-7-x-x-10-10-x-x-5-5-x-x 0-0-x0------------------------------------------| 


Bridge 
e|---------------------------------------------------------------------------| 
B|---------------------------------------------------------------------------| 
G|---------------------------------------------------------------------------| 
D|-7-7-7--3-3-3--5-5-5--2-2-2h3p2---2x--7-7--3-3--5-5--2-2-2h3p2-------------| 
A|-7-7-7--3-3-3--5-5-5--2-2-2h3p2-------7-7--3-3--5-5--2-2-2h3p2-------------| 
D|-7-7-7--3-3-3--5-5-5--2-2-2h3p2-------7-7--3-3--5-5--2-2-2h3p2-------------| 

Chorus 
e|---------------------------------------------------------------------------| 
B|---------------------------------------------------------------------------| 
G|---------------------------------------------------------------------------| 
D|-7-7-x-77-10-10-x-1010-5-5-x-55--0-0-x0-----2x-----------------------------| 
A|-7-7-x-77-10-10-x-1010-5-5-x-55--0-0-x0------------------------------------| 
D|-7-7-x-77-10-10-x-1010-5-5-x-55--0-0-x0------------------------------------| 

e|---------------------------------------------------------------------------| 
B|---------------------------------------------------------------------------| 
G|---------------------------------------------------------------------------| 
D|-7-7-x-x-10-10-x-x-5-5-x-x-0-0-x0---------2x-------------------------------| 
A|-7-7-x-x-10-10-x-x-5-5-x-x-0-0-x0------------------------------------------| 
D|-7-7-x-x-10-10-x-x-5-5-x-x 0-0-x0------------------------------------------| 

end 
e|---------------------------------------------------------------------------| 
B|---------------------------------------------------------------------------| 
G|---------------------------------------------------------------------------| 
D|-7-7-7--3-3-3--5-5-5--2-2-2h3p2---2x---------------------------------------| 
A|-7-7-7--3-3-3--5-5-5--2-2-2h3p2--------------------------------------------| 
D|-7-7-7--3-3-3--5-5-5--2-2-2h3p2--------------------------------------------| 

This is my most favorite song from stria and so I decided to share with everyone with how I play it. 
enjoy :) 



************************************ 

| /   slide up 
| \   slide down 
| h   hammer-on 
| p   pull-off 
| ~   vibrato 
| +   harmonic 
| x   Mute note 
| b   Bend 
| pb  Pre-bend 
| br  Bend release 
| pbr Pre-bend release 
| brb Bend release bend 

************************************ 

roll up this ad to continue

share this page

See Also: