E-Chords
Stray From The Path

Only Death Is Real(Tabs)

Stray From The Path

Key: C
Bam Bam - 00:00 - 00:14 

Riff 1 - 00:14 - 01:20 - x3 
- ----------------------------------------------------------------- 
- ----------------------------------------------------------------- 
- ----------------------------------------------------------------- 
- -0-2---------5-------2------------------------------------------- 
- -x-x---------x-------x------------------------------------------- 
- -0-2---------5-------2------------------------------------------- 

- ----------------------------------------------------------------- 
- ----------------------------------------------------------------- 
- ---------------------------------------------------7-9----------- 
- -0-2---------5-------7-----------5-2---------5-7---x-x----------- 
- -x-x---------x-------x-----------x-x---------x-x---5-7----------- 
- -0-2---------5-------7-----------5-2---------5-7----------------- 

- ----------------------------------------------------------------- 
- ----------------------------------------------------------------- 
- ----------------------------------------------------------------- 
- -5-7-----------------------------8-7---------------------8-5----- 
- -x-x-----------------------------x-x---------------------x-x----- 
- -5-7-----------------------------8-7---------------------8-5----- 

Riff 2 - 00:57 - 01:41 
- ----------------------------------------------------------------- 
- -15-------------------------------------------------------------- 
- ----------------------------------------------------------------- 
- ----------------------------------------------------------------- 
- ----------------------------------------------------------------- 
- ----------------------------------------------------------------- 
AP ............................................................... 

Riff 3 - 01:27 - 02:09 - x3 
- ----------------------------------------------------------------- 
- ----------------------------------------------------------------- 
- ---9br-----------------------------9br--------------------------- 
- -0-x-----------------------------0-x-------------8-7-5-2-x-x-x-x- 
- -0-7br---------------------------0-7br-----------8-7-5-2-x-x-x-x- 
- -0-----5-7-5-----8-7-0-5-7-2-----0-----5-7-5-----8-7-5-2-x-x-x-x- 

- ----------------------------------------------------------------- 
- ----------------------------------------------------------------- 
- ---9br-----------------------------9br--------------------------- 
- -0-x-----------------------------0-x-------------8-7-5-23-3-3-3 
- -0-7br---------------------------0-7br-----------8-7-5-23-3-3-3 
- -0-----5-7-5-----8-7-0-5-7-2-----0-----5-7-5-----8-7-5-23-3-3-3 

Riff 4 - 02:09 - 02:52 - x3 
- ----------------------------------------------------------------- 
- ----------------------------------------------------------------- 
- ----------------------------------------------------------------- 
- -0-2---------5-------2------------------------------------------- 
- -x-x---------x-------x------------------------------------------- 
- -0-2---------5-------2------------------------------------------- 

- ----------------------------------------------------------------- 
- ----------------------------------------------------------------- 
- ----------------------------------------------------------------- 
- -0-2---------5-------7-----------5-2----------------------------- 
- -x-x---------x-------x-----------x-x----------------------------- 
- -0-2---------5-------7-----------5-2----------------------------- 
 

roll up this ad to continue

share this page

See Also: