E-Chords
Stray From The Path

First World Problem Child(Tabs)

Stray From The Path

Key: C
Tuning: DROP C 
  
Intro

e|----------------------------------------------------------------------------| 
B|----------------------------------------------------------------------------| 
G|----------------------------------------------------------------------------| 
D|----------------------------------------------------------------------------| 
A|----------------------------------------------------------------------------| 
E|--7-5-7--5-77--5-77--5-77--5-2-5-7-8-7-5-7--5-77-5-77-5-77--5-2-5-7-8-7-5-7-| 

e|----------------------------------------------------------------------------| 
B|----------------------------------------------------------------------------| 
G|----------------------------------------------------------------------------| 
D|----------------------------------------------------------------------------| 
A|----------------------------------------------------------------------------| 
E|--5-77--5-77--5-77--5-2-5-7-8-7-5-7--5-77-5-77-5-77--5-2-5-7-8-7------------| 

Verse -  

e|----------------------------------------------------------------------------| 
B|----------------------------------------------------------------------------| 
G|----------0h4p0-----0h4p0-----0h4p0-----------------------------------------| 
D|----------------------------------------------------------------------------| 
A|----------------------------------------------------------------------------| 
E|--2-2-2--------2---------2---------2----(2)-5-7-8-7-5-----------------------| 

Intro - 

Verse - 

Bridge - 

e|---------------------------------------------------------------------------| 
B|---------------------------------------------------------------------------| 
G|------------------h12---------------------------------h15------------------| 
D|---h5------------------------------------h8--------------------------------| 
A|---------------------------------------------------------------------------| 
E|---------------------------------------------------------------------------| 

Build up - 

e|---------------------------------------------------------------------------| 
B|---------------------------------------------------------------------------| 
G|---------------------------------------------------------------------------| 
D|---------------------------------------------------------------------------| 
A|--222--222--222--222--5555-------------------------------------------------| 
E|--222--222--222--222--5555-------------------------------------------------| 

e|------------------------------------------------------------| 
B|------------------------------------------------------------| 
G|------------------------------------------------------------| 
D|------------------------------------------------------------| 
A|------------------------------------------------------------| 
E|--2---2---2---2---2---2---2---2---2-2-2-2-2-2-2-2-2-2-2-2-2-| 

Break Down - 'SHUT THE FUCK UP!' 

( Only play the first '2' note on the first time ) 

e|----------------------------------------------------| 
B|----------------------------------------------------| 
G|----------------------------------------------------| 
D|----------------------------------------------------| 
A|----------------------------------------------------| 
E|-2--222-2b3-2b3-2-5----2-----222-2b3-2b3-2-2---2-3--| 
      ***                      ***         * 

e|--------------------------------------------------------------------------------| 
B|--------------------------------------------------------------------------------| 
G|--999999999999999-777777-444444444444444444-77777777777777777-99999999999999999-| 
D|--xxxxxxxxxxxxxxx-xxxxxx-xxxxxxxxxxxxxxxxxx-xxxxxxxxxxxxxxxxx-xxxxxxxxxxxxxxxxx-| 
A|--777777777777777-555555-222222222222222222-55555555555555555-77777777777777777-| 
E|--------------------------------------------------------------------------------| 

e|---------------------------------------------------------| 
B|---------------------------------------------------------| 
G|---------------------------------------------------------| 
D|---------------------------------------------------------| 
A|---------------------------------------------------------| 
E|-2--222-2b3-2b3-2-5----2-----222-2b3-2b3-2-2---2-2--2222-| 
      ***                      ***         * 
************************************ 

| /   slide up 
| \   slide down 
| h   hammer-on 
| p   pull-off 
| ~   vibrato 
| +   harmonic 
| x   Mute note 
| b   Bend 
| pb  Pre-bend 
| br  Bend release 
| pbr Pre-bend release 
| brb Bend release bend 

************************************ 

roll up this ad to continue

share this page

See Also: