E-Chords
Stray From The Path

Damien(Tabs)

Stray From The Path


'What gives you the right to think that you can come and save me?' 
D|------------------------------------------------| 
A|------------------------------------------------| 
F|------------------------------------------------| 
C|-------5/----5-----------------5/---5-----------| 
G|-2--2--7/----7----8-7-0--2-2--7/---7---8-7-0----| 
C|-2--2-----2-----2-8-7-0--2-2-----2---2-8-7-0----| 

'Picture perfect world, I picture violence in disguise.' 
D|------3-2-----4-3-0------3-2-----4-3-0------------| 
A|------3-2-----4-3-0------3-2-----4-3-0------------| 
F|--------------------------------------------------| 
C|--------------------------------------------------| 
G|-2--2-----3-3-------2--2-----3-3------------------| 
C|-2--2-----3-3-------2--2-----3-3------------------| 

'I'll save my breath for something real as you look towards the sky.' 
D|------------------------------------------------| 
A|------------------------------------------------| 
F|------------------------------------------------| 
C|-------5/----5-----------------5/---5-----------| 
G|-2--2--7/----7----8-7-0--2-2--7/---7---8-7-0----| 
C|-2--2-----2-----2-8-7-0--2-2-----2---2-8-7-0----| 

'Pray forgiveness this ends tonight.' 
D|------3-2-----4-3-0------3-2-----4-3-0------------| 
A|------3-2-----4-3-0------3-2-----4-3-0------------| 
F|--------------------------------------------------| 
C|--------------------------------------------------| 
G|-2--2-----3-3-------2--2-----3-3------------------| 
C|-2--2-----3-3-------2--2-----3-3------------------| 

(*On the first bend, you want to bend that 3 times) 
D|--------------------------------------------------------| 
A|----3b----------------------3b15-3b15-3b15--------------| 
F|----3b--------------------------------------------------| 
C|--------------------------------------------------------| 
G|-2------8-5--7-4--6-3---2-------------------------------| 
C|-2------8-5--7-4--6-3---2-------------------------------| 

D|-------------------------------------------------------------------------| 
A|----------------------------14-------------------------------------------| 
F|---------------------13-1-2----------------------------------------------| 
C|-------------------------------------------------------------------------| 
G|-8-5--7-4--6-3---2-------------8-5--7-4--6-3--2----8-5--7-4--6-3--2------| 
C|-8-5--7-4--6-3---2-------------8-5--7-4--6-3--2----8-5--7-4--6-3--2------| 


'I've been awake for 40 days and 40 nights...' 
D|---------------------------------------------------------------------------| 
A|---3-2-0-2-------3-2-0-2-------3-2-0-2-------------------------------------| 
F|---3-2-0-2-------3-2-0-2-------3-2-0-2-------------------------------------| 
C|---------------------------------------------------------------------------| 
G|-2---------2-2-2---------2-2-2----------2-2--2-5--4-2--4-0--0-1------------| 
C|-2---------2-2-2---------2-2-2----------2-2--2-5--4-2--4-0--0-1------------| 

D|---------------------------------------------------------------------------| 
A|---3-2-0-2-------3-2-0-2-------3-2-0-2-------------------------------------| 
F|---3-2-0-2-------3-2-0-2-------3-2-0-2-------------------------------------| 
C|---------------------------------------------------------------------------| 
G|-2---------2-2-2---------2-2-2----------2-2--2-5--4-2--4-0--0-1------------| 
C|-2---------2-2-2---------2-2-2----------2-2--2-5--4-2--4-0--0-1------------| 

'Restless, I found your weakness.' 
D|--------------------------------------------------------------------| 
A|---------------0-------------------------0--------------------------| 
F|---------------3-------------------------3--------------------------| 
C|--------------------------------------------------------------------| 
G|-2-2-2-2-2-2-----0-0-0----2-2-2-2-2-2------0-0-0--------------------| 
C|-2-2-2-2-2-2-----0-0-0----2-2-2-2-2-2------0-0-0--------------------| 

'Restless, I found your weakness.' 
D|--------------------------------------------------------------------| 
A|---------------0-------------------------0--------------------------| 
F|---------------3-------------------------3--------------------------| 
C|--------------------------------------------------------------------| 
G|-2-2-2-2-2-2-----0-0-0----2-2-2-2-2-2------0-0-0--------------------| 
C|-2-2-2-2-2-2-----0-0-0----2-2-2-2-2-2------0-0-0--------------------| 

'I can tell that you have been under his control.' 
D|--------------------------------------------------------------------| 
A|--------------------------------------------------------------------| 
F|--------------------------------------------------------------------| 
C|-----5/---5----------------5/---5-----------------------------------| 
G|-2-2-7/---7----8-7-0--2-2-7/---7----8-7-0---------------------------| 
C|-2-2----2---2--8-7-0--2-2----2---2--8-7-0---------------------------| 

'Making subtle movements being oppressed inside your home.' 
D|------3-2-----4-3-0------3-2-----4-3-0------------| 
A|------3-2-----4-3-0------3-2-----4-3-0------------| 
F|--------------------------------------------------| 
C|--------------------------------------------------| 
G|-2--2-----3-3-------2--2-----3-3------------------| 
C|-2--2-----3-3-------2--2-----3-3------------------| 

'Wearing this mask to hide yourself from the world.' 
D|--------------------------------------------------------------------| 
A|--------------------------------------------------------------------| 
F|--------------------------------------------------------------------| 
C|-----5/---5----------------5/---5-----------------------------------| 
G|-2-2-7/---7----8-7-0--2-2-7/---7----8-7-0---------------------------| 
C|-2-2----2---2--8-7-0--2-2----2---2--8-7-0---------------------------| 

'Falling short, pray forgiveness.' 
D|------3-2-----4-3-0------3-2-----4-3-0------------| 
A|------3-2-----4-3-0------3-2-----4-3-0------------| 
F|--------------------------------------------------| 
C|--------------------------------------------------| 
G|-2--2-----3-3-------2--2-----3-3------------------| 
C|-2--2-----3-3-------2--2-----3-3------------------| 

'I am a demon so deliver me from this.' 
D|---------------------------------------------------------------------------| 
A|---3-2-0-2-------3-2-0-2-------3-2-0-2-------------------------------------| 
F|---3-2-0-2-------3-2-0-2-------3-2-0-2-------------------------------------| 
C|---------------------------------------------------------------------------| 
G|-2---------2-2-2---------2-2-2----------2-2--2-5--4-2--4-0--0-1------------| 
C|-2---------2-2-2---------2-2-2----------2-2--2-5--4-2--4-0--0-1------------| 

D|---------------------------------------------------------------------------| 
A|---3-2-0-2-------3-2-0-2-------3-2-0-2-------------------------------------| 
F|---3-2-0-2-------3-2-0-2-------3-2-0-2-------------------------------------| 
C|---------------------------------------------------------------------------| 
G|-2---------2-2-2---------2-2-2----------2-2--2-5--4-2--4-0--0-1------------| 
C|-2---------2-2-2---------2-2-2----------2-2--2-5--4-2--4-0--0-1------------| 


'From this moment on, I see a world shattered and cold.' 
D|--------------------------------------------------------------------| 
A|--------------------------------------------------------------------| 
F|--------------------------------------------------------------------| 
C|--------------------------------------------------------------------| 
G|-2-2-2-2--2-2--2--2-2--2-2--2-2-2-2--2-2--2--2-2--------------------| 
C|-2-2-2-2--2-2--2--2-2--2-2--2-2-2-2--2-2--2--2-2--------------------| 

'And it's all starting to get old.' 
D|----------------------------------------------------------------------| 
A|---0-0-0-0-0-0-------------------0-0-0-0-0-0-0-0-0-0-0-0--------------| 
F|---3-3-3-3-3-3-------------------3-3-3-3-3-3-3-3-3-3-3-3--------------| 
C|----------------------------------------------------------------------| 
G|-2-------------8-5--7-4--6-3---2--------------------------2--2--------| 
C|-2-------------8-5--7-4--6-3---2--------------------------2--2--------| 

D|-----------------------------------------------------------------------| 
A|---0-0-0-0-0-0---------------------------------------------------------| 
F|---3-3-3-3-3-3---------------------------------------------------------| 
C|-----------------------------------------------------------------------| 
G|-2-------------8-5--7-4--6-3---2---------------------------------------| 
C|-2-------------8-5--7-4--6-3---2---------------------------------------| 


'I'm not listening.' 
D|----------------------------------------------------------------------| 
A|----------------------------------------------------------------------| 
F|----------------------------------------------------------------------| 
C|----------------------------------------------------------------------| 
G|----2-2-2---8-5--7-4--6-3---2--2-2-2---8-5--7-4--6-3------------------| 
C|-2--2-2-2---8-5--7-4--6-3---2--2-2-2---8-5--7-4--6-3------------------| 


D|---------------------------------------------| 
A|---5-----3---5-------------------------------| 
F|---5-----3---5-------------------------------| 
C|---------------------------------------------| 
G|-5---3-2---5---3-2---------------------------| 
C|-5---3-2---5---3-2---------------------------| 

D|---------------------------------------------| 
A|---5-----3---5-------------------------------| 
F|---5-----3---5-------------------------------| 
C|---------------------------------------------| 
G|-5---3-2---5---3-2---------------------------| 
C|-5---3-2---5---3-2---------------------------| 

D|---------------------------------------------| 
A|---5-----3---5-------------------------------| 
F|---5-----3---5-------------------------------| 
C|---------------------------------------------| 
G|-5---3-2---5---3-2---------------------------| 
C|-5---3-2---5---3-2---------------------------| 

D|---------------------------------------------| 
A|---5-----3---5-------------------------------| 
F|---5-----3---5-------------------------------| 
C|---------------------------------------------| 
G|-5---3-2---5---3-2--------23ph---------------| 
C|-5---3-2---5---3-2---------------------------| 


'I've been awake for 40 days and 40 nights...' 
D|---------------------------------------------------------------------------| 
A|---3-2-0-2-------3-2-0-2-------3-2-0-2-------------------------------------| 
F|---3-2-0-2-------3-2-0-2-------3-2-0-2-------------------------------------| 
C|---------------------------------------------------------------------------| 
G|-2---------2-2-2---------2-2-2----------2-2--2-5--4-2--4-0--0-1------------| 
C|-2---------2-2-2---------2-2-2----------2-2--2-5--4-2--4-0--0-1------------| 

D|---------------------------------------------------------------------------| 
A|---3-2-0-2-------3-2-0-2-------3-2-0-2-------------------------------------| 
F|---3-2-0-2-------3-2-0-2-------3-2-0-2-------------------------------------| 
C|---------------------------------------------------------------------------| 
G|-2---------2-2-2---------2-2-2----------2-2--2-5--4-2--4-0--0-1------------| 
C|-2---------2-2-2---------2-2-2----------2-2--2-5--4-2--4-0--0-1------------| 



'Restless, I found your weakness.' 
D|--------------------------------------------------------------------| 
A|---------------0-------------------------0--------------------------| 
F|---------------3-------------------------3--------------------------| 
C|--------------------------------------------------------------------| 
G|-2-2-2-2-2-2-----0-0-0----2-2-2-2-2-2------0-0-0--------------------| 
C|-2-2-2-2-2-2-----0-0-0----2-2-2-2-2-2------0-0-0--------------------| 

D|--------------------------------------------------------------------| 
A|---------------0-------------------------0--------------------------| 
F|---------------3-------------------------3--------------------------| 
C|--------------------------------------------------------------------| 
G|-2-2-2-2-2-2-----0-0-0----2-2-2-2-2-2------0-0-0--------------------| 
C|-2-2-2-2-2-2-----0-0-0----2-2-2-2-2-2------0-0-0--------------------| 


D|--------------------------------------------------------------------| 
A|--------------------------------------------------------------------| 
F|--------------------------------------------------------------------| 
C|--------------------------------------------------------------------| 
G|-2-2-2-2--2-2--2--2-2-----------------------------------------------| 
C|-2-2-2-2--2-2--2--2-2-----------------------------------------------| 

'I am a demon so deliver me from this.' 
D|--------------------------------------------------------------------| 
A|--------------------------------------------------------------------| 
F|--------------------------------------------------------------------| 
C|--------------------------------------------------------------------| 
G|-2-2-2-2--2-2--2--2-2---2-2-2-2--2-2--2--2-2------------------------| 
C|-2-2-2-2--2-2--2--2-2---2-2-2-2--2-2--2--2-2------------------------| 

'From this very moment.' 
D|--------------------------------------------------------------------| 
A|--------------------------------------------------------------------| 
F|--------------------------------------------------------------------| 
C|--------------------------------------------------------------------| 
G|-2--2--2--2--2--2--2--2--2--2--2--2--2--2--2--2---------------------| 
C|-2--2--2--2--2--2--2--2--2--2--2--2--2--2--2--2---------------------| 


D|--------------------------------------------------------------------| 
A|--------------------------------------------------------------------| 
F|--------------------------------------------------------------------| 
C|--------------------------------------------------------------------| 
G|-1-1-1-1--1-1--1--1-1--1-1--2-2-2-2--2-2--2--2-2-2-2----------------| 
C|-1-1-1-1--1-1--1--1-1--1-1--2-2-2-2--2-2--2--2-2-2-2----------------| 

roll up this ad to continue

share this page

See Also: