E-Chords
Stone Soul

Follow Me(Tabs)

Stone Soul

roll up this ad to continue

E||-------------------------------|-------------------------------| 
B||-------------------------------|-------------------------------| 
G||-------------------------------|-------------------------------| 
D||--2--2-2-2-2-2--2-2-2-2-2--2-2-|--2-2-2--2-2-2-2-2--2-2-2-2-2--| 
A||--2--2-2-2-2-2--2-2-2-2-2--2-2-|--2-2-2--2-2-2-2-2--2-2-2-2-2--| 
E||--0--0-0-0-0-0--0-0-0-0-0--0-0-|--0-0-0--0-0-0-0-0--0-0-0-0-0--| 

--0-0-0-0-0--0-0-0-0-0--0-0-0-0-|--0--0-0-0-0-0--0-0-0-0-0--0-0-| 
--0-0-0-0-0--0-0-0-0-0--0-0-0-0-|--0--0-0-0-0-0--0-0-0-0-0--0-0-| 
--0-0-0-0-0--0-0-0-0-0--0-0-0-0-|--0--0-0-0-0-0--0-0-0-0-0--0-0-| 
--2-2-2-2-2--2-2-2-2-2--2-2-2-2-|--2--2-2-2-2-2--2-2-2-2-2--2-2-| 
--2-2-2-2-2--2-2-2-2-2--2-2-2-2-|--2--2-2-2-2-2--2-2-2-2-2--2-2-| 
--0-0-0-0-0--0-0-0-0-0--0-0-0-0-|--0--0-0-0-0-0--0-0-0-0-0--0-0-| 
                                                                  
--0-0-0--0-0-0-0-0--0-0-0-0-0--|--0-0-0-0-0--0-0-0-0-0--0-0-0-0-| 
--0-0-0--0-0-0-0-0--0-0-0-0-0--|--0-0-0-0-0--0-0-0-0-0--0-0-0-0-| 
--0-0-0--0-0-0-0-0--0-0-0-0-0--|--0-0-0-0-0--0-0-0-0-0--0-0-0-0-| 
--2-2-2--2-2-2-2-2--2-2-2-2-2--|--2-2-2-2-2--2-2-2-2-2--2-2-2-2-| 
--2-2-2--2-2-2-2-2--2-2-2-2-2--|--2-2-2-2-2--2-2-2-2-2--2-2-2-2-| 
--0-0-0--0-0-0-0-0--0-0-0-0-0--|--0-0-0-0-0--0-0-0-0-0--0-0-0-0-| 

--0--0-0-0-0-0--0-0-0-0-0--0-0-|--0-0-0--0-0-0-0-0--0-0-0-0-0--| 
--0--0-0-0-0-0--0-0-0-0-0--0-0-|--0-0-0--0-0-0-0-0--0-0-0-0-0--| 
--0--0-0-0-0-0--0-0-0-0-0--0-0-|--0-0-0--0-0-0-0-0--0-0-0-0-0--| 
--2--2-2-2-2-2--2-2-2-2-2--2-2-|--2-2-2--2-2-2-2-2--2-2-2-2-2--| 
--2--2-2-2-2-2--2-2-2-2-2--2-2-|--2-2-2--2-2-2-2-2--2-2-2-2-2--| 
--0--0-0-0-0-0--0-0-0-0-0--0-0-|--0-0-0--0-0-0-0-0--0-0-0-0-0--| 
                                                                  
--0-0-0-0-0--0-0-0-0-0--0-0-0-0-|--0--0-0-0-0-0--0-0-0-0-0--0-0-| 
--0-0-0-0-0--0-0-0-0-0--0-0-0-0-|--0--0-0-0-0-0--0-0-0-0-0--0-0-| 
--0-0-0-0-0--0-0-0-0-0--0-0-0-0-|--0--0-0-0-0-0--0-0-0-0-0--0-0-| 
--2-2-2-2-2--2-2-2-2-2--2-2-2-2-|--2--2-2-2-2-2--2-2-2-2-2--2-2-| 
--2-2-2-2-2--2-2-2-2-2--2-2-2-2-|--2--2-2-2-2-2--2-2-2-2-2--2-2-| 
--0-0-0-0-0--0-0-0-0-0--0-0-0-0-|--0--0-0-0-0-0--0-0-0-0-0--0-0-| 
                                                                  
--0-0-0--0-0-0-0-0--0-0-0-0-0--|--0-0-0-0-0--0-0-0-0-0--0-0-0-0-| 
--0-0-0--0-0-0-0-0--0-0-0-0-0--|--0-0-0-0-0--0-0-0-0-0--0-0-0-0-| 
--0-0-0--0-0-0-0-0--0-0-0-0-0--|--0-0-0-0-0--0-0-0-0-0--0-0-0-0-| 
--2-2-2--2-2-2-2-2--2-2-2-2-2--|--2-2-2-2-2--2-2-2-2-2--2-2-2-2-| 
--2-2-2--2-2-2-2-2--2-2-2-2-2--|--2-2-2-2-2--2-2-2-2-2--2-2-2-2-| 
--0-0-0--0-0-0-0-0--0-0-0-0-0--|--0-0-0-0-0--0-0-0-0-0--0-0-0-0-| 
                                                                 
--0--0-0-0-0-0--0-0-0-0-0--0-0-|--0-0-0--0-0-0-0-0--0-0-0-0-0--| 
--0--0-0-0-0-0--0-0-0-0-0--0-0-|--0-0-0--0-0-0-0-0--0-0-0-0-0--| 
--0--0-0-0-0-0--0-0-0-0-0--0-0-|--0-0-0--0-0-0-0-0--0-0-0-0-0--| 
--2--2-2-2-2-2--2-2-2-2-2--2-2-|--2-2-2--2-2-2-2-2--2-2-2-2-2--| 
--2--2-2-2-2-2--2-2-2-2-2--2-2-|--2-2-2--2-2-2-2-2--2-2-2-2-2--| 
--0--0-0-0-0-0--0-0-0-0-0--0-0-|--0-0-0--0-0-0-0-0--0-0-0-0-0--| 
                                                                  
--0-0-0-0-0--0-0-0-0-0--0-0-0-0-|--0--0-0-0-0-0--0-0-0-0-0--0-0-| 
--0-0-0-0-0--0-0-0-0-0--0-0-0-0-|--0--0-0-0-0-0--0-0-0-0-0--0-0-| 
--0-0-0-0-0--0-0-0-0-0--0-0-0-0-|--0--0-0-0-0-0--0-0-0-0-0--0-0-| 
--2-2-2-2-2--2-2-2-2-2--2-2-2-2-|--2--2-2-2-2-2--2-2-2-2-2--2-2-| 
--2-2-2-2-2--2-2-2-2-2--2-2-2-2-|--2--2-2-2-2-2--2-2-2-2-2--2-2-| 
--0-0-0-0-0--0-0-0-0-0--0-0-0-0-|--0--0-0-0-0-0--0-0-0-0-0--0-0-| 
                                                                  
--0-0-0--0-0-0-0-0--0-0-0-0-0--|--0-0-0-0-0--0-0-0-0-0--0-0-0-0-| 
--0-0-0--0-0-0-0-0--0-0-0-0-0--|--0-0-0-0-0--0-0-0-0-0--0-0-0-0-| 
--0-0-0--0-0-0-0-0--0-0-0-0-0--|--0-0-0-0-0--0-0-0-0-0--0-0-0-0-| 
--2-2-2--2-2-2-2-2--2-2-2-2-2--|--2-2-2-2-2--2-2-2-2-2--2-2-2-2-| 
--2-2-2--2-2-2-2-2--2-2-2-2-2--|--2-2-2-2-2--2-2-2-2-2--2-2-2-2-| 
--0-0-0--0-0-0-0-0--0-0-0-0-0--|--0-0-0-0-0--0-0-0-0-0--0-0-0-0-| 


                                                                 
--0--0-0-0-0-0--0-0-0-0-0--0-0-|--0-0-0--0-0-0-0-0--0-0-0-0-0--| 
--0--0-0-0-0-0--0-0-0-0-0--0-0-|--0-0-0--0-0-0-0-0--0-0-0-0-0--| 
--0--0-0-0-0-0--0-0-0-0-0--0-0-|--0-0-0--0-0-0-0-0--0-0-0-0-0--| 
--2--2-2-2-2-2--2-2-2-2-2--2-2-|--2-2-2--2-2-2-2-2--2-2-2-2-2--| 
--2--2-2-2-2-2--2-2-2-2-2--2-2-|--2-2-2--2-2-2-2-2--2-2-2-2-2--| 
--0--0-0-0-0-0--0-0-0-0-0--0-0-|--0-0-0--0-0-0-0-0--0-0-0-0-0--| 


                                                                  
--0-0-0-0-0--0-0-0-0-0--0-0-0-0-|--0--0-0-0-0-0--0-0-0-0-0--0-0-| 
--0-0-0-0-0--0-0-0-0-0--0-0-0-0-|--0--0-0-0-0-0--0-0-0-0-0--0-0-| 
--0-0-0-0-0--0-0-0-0-0--0-0-0-0-|--0--0-0-0-0-0--0-0-0-0-0--0-0-| 
--2-2-2-2-2--2-2-2-2-2--2-2-2-2-|--2--2-2-2-2-2--2-2-2-2-2--2-2-| 
--2-2-2-2-2--2-2-2-2-2--2-2-2-2-|--2--2-2-2-2-2--2-2-2-2-2--2-2-| 
--0-0-0-0-0--0-0-0-0-0--0-0-0-0-|--0--0-0-0-0-0--0-0-0-0-0--0-0-| 


                                                                  
--0-0-0--0-0-0-0-0--0-0-0-0-0--|--0-0-0-0-0--0-0-0-0-0--0-0-0-0-| 
--0-0-0--0-0-0-0-0--0-0-0-0-0--|--0-0-0-0-0--0-0-0-0-0--0-0-0-0-| 
--0-0-0--0-0-0-0-0--0-0-0-0-0--|--0-0-0-0-0--0-0-0-0-0--0-0-0-0-| 
--2-2-2--2-2-2-2-2--2-2-2-2-2--|--2-2-2-2-2--2-2-2-2-2--2-2-2-2-| 
--2-2-2--2-2-2-2-2--2-2-2-2-2--|--2-2-2-2-2--2-2-2-2-2--2-2-2-2-| 
--0-0-0--0-0-0-0-0--0-0-0-0-0--|--0-0-0-0-0--0-0-0-0-0----------                                                                 

--2--2-2-2-2-2--2-2-2-2-0--0-0-|--0-0-0--0-0-0-0-0--0-0-0-0-0--| 
--3--3-3-3-3-3--3-3-3-3-2--2-2-|--2-2-2--2-2-2-2-1--1-1-1-1-1--| 
--2--2-2-2-2-2--2-2-2-2-2--2-2-|--2-2-2--2-2-2-2-0--0-0-0-0-0--| 
--0--0-0-0-0-0--0-0-0-0-2--2-2-|--2-2-2--2-2-2-2-2--2-2-2-2-2--| 
--0--0-0-0-0-0--0-0-0-0-0--0-0-|--0-0-0--0-0-0-0-3--3-3-3-3-3--| 
-------------------------------|-------------------------------| 
                                                                 
--0-0-0-0-0--0-0-0-0-0--0--0-0-|--2--2-2-2-2-2--2-2-2-2-0--0-0-| 
--1-1-1-1-0--0-0-0-0-0--0--0-0-|--3--3-3-3-3-3--3-3-3-3-2--2-2-| 
--0-0-0-0-0--0-0-0-0-0--0--0-0-|--2--2-2-2-2-2--2-2-2-2-2--2-2-| 
--2-2-2-2-2--2-2-2-2-2--2--2-2-|--0--0-0-0-0-0--0-0-0-0-2--2-2-| 
--3-3-3-3-2--2-2-2-2-2--2--2-2-|--0--0-0-0-0-0--0-0-0-0-0--0-0-| 
----------0--0-0-0-0-0--0--0-0-|-------------------------------| 
                                                                 
--0-0-0--0-0-0-0-0--0-0-0-0-0--|--0-0-0-0-0--0-0-0-0-0--0--0-0-| 
--2-2-2--2-2-2-2-1--1-1-1-1-1--|--1-1-1-1-0--0-0-0-0-0--0--0-0-| 
--2-2-2--2-2-2-2-0--0-0-0-0-0--|--0-0-0-0-0--0-0-0-0-0--0--0-0-| 
--2-2-2--2-2-2-2-2--2-2-2-2-2--|--2-2-2-2-2--2-2-2-2-2--2--2-2-| 
--0-0-0--0-0-0-0-3--3-3-3-3-3--|--3-3-3-3-2--2-2-2-2-2--2--2-2-| 
-------------------------------|----------0--0-0-0-0-0--0--0-0-| 
                                                                 
--2--2-2-2-2-2--2-2-2-2-0--0-0-|--0-0-0--0-0-0-0-0--0-0-0-0-0--| 
--3--3-3-3-3-3--3-3-3-3-2--2-2-|--2-2-2--2-2-2-2-1--1-1-1-1-1--| 
--2--2-2-2-2-2--2-2-2-2-2--2-2-|--2-2-2--2-2-2-2-0--0-0-0-0-0--| 
--0--0-0-0-0-0--0-0-0-0-2--2-2-|--2-2-2--2-2-2-2-2--2-2-2-2-2--| 
--0--0-0-0-0-0--0-0-0-0-0--0-0-|--0-0-0--0-0-0-0-3--3-3-3-3-3--| 
-------------------------------|-------------------------------| 
                                                                 
--0-0-0-0-0--0-0-0-0-0--0--0-0-|--2--2-2-2-2-2--2-2-2-2-0--0-0-| 
--1-1-1-1-0--0-0-0-0-0--0--0-0-|--3--3-3-3-3-3--3-3-3-3-2--2-2-| 
--0-0-0-0-0--0-0-0-0-0--0--0-0-|--2--2-2-2-2-2--2-2-2-2-2--2-2-| 
--2-2-2-2-2--2-2-2-2-2--2--2-2-|--0--0-0-0-0-0--0-0-0-0-2--2-2-| 
--3-3-3-3-2--2-2-2-2-2--2--2-2-|--0--0-0-0-0-0--0-0-0-0-0--0-0-| 
----------0--0-0-0-0-0--0--0-0-|-------------------------------| 
                                                                  
--0-0-0--0-0-0-0-0--0-0-0-0-0--|--0-0-0-0-0--0-0-0-0-0--0-0-0-0-| 
--2-2-2--2-2-2-2-1--1-1-1-1-1--|--1-1-1-1-0--0-0-0-0-0--0-0-0-0-| 
--2-2-2--2-2-2-2-0--0-0-0-0-0--|--0-0-0-0-0--0-0-0-0-0--0-0-0-0-| 
--2-2-2--2-2-2-2-2--2-2-2-2-2--|--2-2-2-2-2--2-2-2-2-2--2-2-2-2-| 
--0-0-0--0-0-0-0-3--3-3-3-3-3--|--3-3-3-3-2--2-2-2-2-2--2-2-2-2-| 
-------------------------------|----------0--0-0-0-0-0--0-0-0-0-| 
                                                                  
----------------------|--------------------|--------------------| 
----------------------|--------------------|--------------------| 
----------------------|--------------------|--------------------| 
----------------------|--------------------|--------------------| 
--1/3-----------3/5---|----------5/7-------|------7/9-----------| 
----------------------|--------------------|--------------------| 
                                                       
---------------------|--0-0-0--0-0-0-0-0--0-0-0-0-0--| 
---------------------|--0-0-0--0-0-0-0-0--0-0-0-0-0--| 
---------------------|--0-0-0--0-0-0-0-0--0-0-0-0-0--| 
---------------------|--2-2-2--2-2-2-2-2--2-2-2-2-2--| 
--7/10---------------|--2-2-2--2-2-2-2-2--2-2-2-2-2--| 
---------------------|--0-0-0--0-0-0-0-0--0-0-0-0-0--| 
                                                                  
--0-0-0-0-0--0-0-0-0-0--0-0-0-0-|--0--0-0-0-0-0--0-0-0-0-0--0-0-| 
--0-0-0-0-0--0-0-0-0-0--0-0-0-0-|--0--0-0-0-0-0--0-0-0-0-0--0-0-| 
--0-0-0-0-0--0-0-0-0-0--0-0-0-0-|--0--0-0-0-0-0--0-0-0-0-0--0-0-| 
--2-2-2-2-2--2-2-2-2-2--2-2-2-2-|--2--2-2-2-2-2--2-2-2-2-2--2-2-| 
--2-2-2-2-2--2-2-2-2-2--2-2-2-2-|--2--2-2-2-2-2--2-2-2-2-2--2-2-| 
--0-0-0-0-0--0-0-0-0-0--0-0-0-0-|--0--0-0-0-0-0--0-0-0-0-0--0-0-| 
                                                                  
--0-0-0--0-0-0-0-0--0-0-0-0-0--|--0-0-0-0-0--0-0-0-0-0--0-0-0-0-| 
--0-0-0--0-0-0-0-0--0-0-0-0-0--|--0-0-0-0-0--0-0-0-0-0--0-0-0-0-| 
--0-0-0--0-0-0-0-0--0-0-0-0-0--|--0-0-0-0-0--0-0-0-0-0--0-0-0-0-| 
--2-2-2--2-2-2-2-2--2-2-2-2-2--|--2-2-2-2-2--2-2-2-2-2--2-2-2-2-| 
--2-2-2--2-2-2-2-2--2-2-2-2-2--|--2-2-2-2-2--2-2-2-2-2--2-2-2-2-| 
--0-0-0--0-0-0-0-0--0-0-0-0-0--|--0-0-0-0-0--0-0-0-0-0--0-0-0-0-/ 
                                                                  
--0-0-0-0-0--0-0-0-0-0--0-0-0-0-|--0--0-0-0-0-0--0-0-0-0-0--0-0-| 
--0-0-0-0-0--0-0-0-0-0--0-0-0-0-|--0--0-0-0-0-0--0-0-0-0-0--0-0-| 
--0-0-0-0-0--0-0-0-0-0--0-0-0-0-|--0--0-0-0-0-0--0-0-0-0-0--0-0-| 
--2-2-2-2-2--2-2-2-2-2--2-2-2-2-|--2--2-2-2-2-2--2-2-2-2-2--2-2-| 
--2-2-2-2-2--2-2-2-2-2--2-2-2-2-|--2--2-2-2-2-2--2-2-2-2-2--2-2-| 
--0-0-0-0-0--0-0-0-0-0--0-0-0-0-|--0--0-0-0-0-0--0-0-0-0---0-0--/ 

--0-0-0--0-0-0-0-0--0-0-0-0-0--|--0-0-0-0-0--0-0-0-0-0--0-0-0-0-| 
--0-0-0--0-0-0-0-0--0-0-0-0-0--|--0-0-0-0-0--0-0-0-0-0--0-0-0-0-| 
--0-0-0--0-0-0-0-0--0-0-0-0-0--|--0-0-0-0-0--0-0-0-0-0--0-0-0-0-| 
--2-2-2--2-2-2-2-2--2-2-2-2-2--|--2-2-2-2-2--2-2-2-2-2--2-2-2-2-| 
--2-2-2--2-2-2-2-2--2-2-2-2-2--|--2-2-2-2-2--2-2-2-2-2--2-2-2-2-| 
--0-0-0--0-0-0-0-0--0-0-0-0-0--|--0-0-0-0-0--0-0-0-0-0--0-0-0-0-| 
                                                                  
--0-0-0-0-0--0-0-0-0-0--0-0-0-0-|--0--0-0-0-0-0--0-0-0-0-0--0-0-| 
--0-0-0-0-0--0-0-0-0-0--0-0-0-0-|--0--0-0-0-0-0--0-0-0-0-0--0-0-| 
--0-0-0-0-0--0-0-0-0-0--0-0-0-0-|--0--0-0-0-0-0--0-0-0-0-0--0-0-| 
--2-2-2-2-2--2-2-2-2-2--2-2-2-2-|--2--2-2-2-2-2--2-2-2-2-2--2-2-| 
--2-2-2-2-2--2-2-2-2-2--2-2-2-2-|--2--2-2-2-2-2--2-2-2-2-2--2-2-| 
--0-0-0-0-0--0-0-0-0-0--0-0-0-0-|--0--0-0-0-0-0--0-0-0-0-0------/ 
                                                                 
--2--2-2-2-2-2--2-2-2-2-0--0-0-|--0-0-0--0-0-0-0-0--0-0-0-0-0--| 
--3--3-3-3-3-3--3-3-3-3-2--2-2-|--2-2-2--2-2-2-2-1--1-1-1-1-1--| 
--2--2-2-2-2-2--2-2-2-2-2--2-2-|--2-2-2--2-2-2-2-0--0-0-0-0-0--| 
--0--0-0-0-0-0--0-0-0-0-2--2-2-|--2-2-2--2-2-2-2-2--2-2-2-2-2--| 
--0--0-0-0-0-0--0-0-0-0-0--0-0-|--0-0-0--0-0-0-0-3--3-3-3-3-3--| 
-------------------------------|-------------------------------| 
                                                                 
--0-0-0-0-0--0-0-0-0-0--0--0-0-|--2--2-2-2-2-2--2-2-2-2-0--0-0-| 
--1-1-1-1-0--0-0-0-0-0--0--0-0-|--3--3-3-3-3-3--3-3-3-3-2--2-2-| 
--0-0-0-0-0--0-0-0-0-0--0--0-0-|--2--2-2-2-2-2--2-2-2-2-2--2-2-| 
--2-2-2-2-2--2-2-2-2-2--2--2-2-|--0--0-0-0-0-0--0-0-0-0-2--2-2-| 
--3-3-3-3-2--2-2-2-2-2--2--2-2-|--0--0-0-0-0-0--0-0-0-0-0--0-0-| 
----------0--0-0-0-0-0--0--0-0-|-------------------------------| 
                                                                 
--0-0-0--0-0-0-0-0--0-0-0-0-0--|--0-0-0-0-0--0-0-0-0-0--0--0-0-| 
--2-2-2--2-2-2-2-1--1-1-1-1-1--|--1-1-1-1-0--0-0-0-0-0--0--0-0-| 
--2-2-2--2-2-2-2-0--0-0-0-0-0--|--0-0-0-0-0--0-0-0-0-0--0--0-0-| 
--2-2-2--2-2-2-2-2--2-2-2-2-2--|--2-2-2-2-2--2-2-2-2-2--2--2-2-| 
--0-0-0--0-0-0-0-3--3-3-3-3-3--|--3-3-3-3-2--2-2-2-2-2--2--2-2-| 
-------------------------------|----------0--0-0-0-0-0--0--0-0-| 
                                                                 
--2--2-2-2-2-2--2-2-2-2-0--0-0-|--0-0-0--0-0-0-0-0--0-0-0-0-0--| 
--3--3-3-3-3-3--3-3-3-3-2--2-2-|--2-2-2--2-2-2-2-1--1-1-1-1-1--| 
--2--2-2-2-2-2--2-2-2-2-2--2-2-|--2-2-2--2-2-2-2-0--0-0-0-0-0--| 
--0--0-0-0-0-0--0-0-0-0-2--2-2-|--2-2-2--2-2-2-2-2--2-2-2-2-2--| 
--0--0-0-0-0-0--0-0-0-0-0--0-0-|--0-0-0--0-0-0-0-3--3-3-3-3-3--| 
-------------------------------|-------------------------------| 
                                                                 
--0-0-0-0-0--0-0-0-0-0--0--0-0-|--2--2-2-2-2-2--2-2-2-2-0--0-0-| 
--1-1-1-1-0--0-0-0-0-0--0--0-0-|--3--3-3-3-3-3--3-3-3-3-2--2-2-| 
--0-0-0-0-0--0-0-0-0-0--0--0-0-|--2--2-2-2-2-2--2-2-2-2-2--2-2-| 
--2-2-2-2-2--2-2-2-2-2--2--2-2-|--0--0-0-0-0-0--0-0-0-0-2--2-2-| 
--3-3-3-3-2--2-2-2-2-2--2--2-2-|--0--0-0-0-0-0--0-0-0-0-0--0-0-| 
----------0--0-0-0-0-0--0--0-0-|-------------------------------| 
                                                                 
--0-0-0--0-0-0-0-0--0-0-0-0-0--|--0-0-0-0-0--0-0-0-0-0--0--0-0-| 
--2-2-2--2-2-2-2-1--1-1-1-1-1--|--1-1-1-1-0--0-0-0-0-0--0--0-0-| 
--2-2-2--2-2-2-2-0--0-0-0-0-0--|--0-0-0-0-0--0-0-0-0-0--0--0-0-| 
--2-2-2--2-2-2-2-2--2-2-2-2-2--|--2-2-2-2-2--2-2-2-2-2--2--2-2-| 
--0-0-0--0-0-0-0-3--3-3-3-3-3--|--3-3-3-3-2--2-2-2-2-2--2--2-2-| 
-------------------------------|----------0--0-0-0-0-0--0--0-0-| 
                                                                  
--0-0-0-0-0--0-0-0-0-0--0-0-0-0-|--0--0-0-0-0-0--0-0-0-0-0--0-0-| 
--0-0-0-0-0--0-0-0-0-0--0-0-0-0-|--0--0-0-0-0-0--0-0-0-0-0--0-0-| 
--0-0-0-0-0--0-0-0-0-0--0-0-0-0-|--0--0-0-0-0-0--0-0-0-0-0--0-0-| 
--2-2-2-2-2--2-2-2-2-2--2-2-2-2-|--2--2-2-2-2-2--2-2-2-2-2--2-2-| 
--2-2-2-2-2--2-2-2-2-2--2-2-2-2-|--2--2-2-2-2-2--2-2-2-2-2--2-2-| 
--0-0-0-0-0--0-0-0-0-0--0-0-0-0-|--0--0-0-0-0-0--0-0-0-0-0--0-0-| 
                                                                  
--0-0-0--0-0-0-0-0--0-0-0-0-0--|--0-0-0-0-0--0-0-0-0-0--0-0-0-0-| 
--0-0-0--0-0-0-0-0--0-0-0-0-0--|--0-0-0-0-0--0-0-0-0-0--0-0-0-0-| 
--0-0-0--0-0-0-0-0--0-0-0-0-0--|--0-0-0-0-0--0-0-0-0-0--0-0-0-0-| 
--2-2-2--2-2-2-2-2--2-2-2-2-2--|--2-2-2-2-2--2-2-2-2-2--2-2-2-2-| 
--2-2-2--2-2-2-2-2--2-2-2-2-2--|--2-2-2-2-2--2-2-2-2-2--2-2-2-2-| 
--0-0-0--0-0-0-0-0--0-0-0-0-0--|--0-0-0-0-0--0-0-0-0-0--0-0-0-0-| 
                                                                   
----------12----------------------|--15--------------------7-----| 
------13------13------13------15--|------15------15-----8-----8--| 
--12--------------12------12------|----------12------9-----------| 
----------------------------------|------------------------------| 
----------------------------------|------------------------------| 
----------------------------------|------------------------------| 
                                                               
--------------7-----------|----------12----------------------| 
-----8-----8-----8-----8--|------13------13------13------15--| 
--9-----9-----------9-----|--12--------------12------12------| 
--------------------------|----------------------------------| 
--------------------------|----------------------------------| 
--------------------------|----------------------------------| 
                                                           
--15--------------------7-----|--------------7-----------| 
------15------15-----8-----8--|-----8-----8-----8-----8--| 
----------12------9-----------|--9-----9-----------9-----| 
------------------------------|--------------------------| 
------------------------------|--------------------------| 
------------------------------|--------------------------| 
                                                                   
----------12----------------------|--15--------------------7-----| 
------13------13------13------15--|------15------15-----8-----8--| 
--12--------------12------12------|----------12------9-----------| 
----------------------------------|------------------------------| 
----------------------------------|------------------------------| 
----------------------------------|------------------------------| 
                                                               
--------------7-----------|----------12----------------------| 
-----8-----8-----8-----8--|------13------13------13------15--| 
--9-----9-----------9-----|--12--------------12------12------| 
--------------------------|----------------------------------| 
--------------------------|----------------------------------| 
--------------------------|----------------------------------| 
                                                                               
--15--------------------7-----|--------------7-----------| 
------15------15-----8-----8--|-----8-----8-----8-----8--| 
----------12------9-----------|--9-----9-----------9-----| 
------------------------------|--------------------------| 
------------------------------|--------------------------| 
------------------------------|--------------------------| 
share this page

See Also: