E-Chords
Stone Soul

Disasterpiece(Tabs)

Stone Soul

roll up this ad to continue

Afinação(B,F#,B,E,G#,C#) 

C#|-----------------------------------|  
G#|-----------------------------------|  
E |-----------------------------------|  
B |-------------7b--------------------|  
F#|-5-6-6-5-6-5----5-6-5--------------|  
B |-----------------------------------|  

Na quinta vez que o Riff acima for tocado, a segunda entra faz: 
C#|-----------------------------------|  
G#|-----------------------------------|  
E |-----------------------------------|  
B |------------7b---------------------|  
F#|-----------------------------------|  
B |-x-x-0-x-x------x-x-0-x-0-x-0------|  

Na nona vez em que o primeiro Riff for tocado, a segunda faz: 
C#|-----------------------------------|  
G#|-----------------------------------|  
E |-----------------------------------|  
B |------------7b---------------------|  
F#|-----------------------------------|  
B |-x-x-0-x-x------x-x-2-31-41-----|  

Depois, as duas guitarras: 
C#|-----------------------------------|  
G#|-----------------------------------|  
E |-----------------------------------|  
B |-----------------------------------|  
F#|-x-x-0-x-x-1-x-x-2-31-41--------|  
B |-x-x-0-x-x-1-x-x-2-31-41--------| 

Nos 55 segundos da música, fica a segunda guitarra; logo depois entra a primeira 
e vao até o refrao. 
C#|-----------------------------------|  
G#|-----------------------------------|  
E |-----------------------------------|  
B |-----------------------------------|  
F#|-0-0-0-1-1-1-0---2-31-41--------|  
B |-0-0-0-1-1-1-0---2-31-41--------| 
I wanna slit your throat... 

Refrao: 
C#|-----------------------------------|  
G#|-----------------------------------|  
E |-----------------------------------|  
B |-------------------8-8-8-8-9-9-9-9-|  
F#|-----------------------------------|  
B |-0-0-0-1-1-1-0~--------------------| 
No one is... SAFE... 

Depois do Refrão a primeira faz:      E a segunda: 
|------------------------------|      |--------------------------------| 
|------------------------------|      |-6-5-5-6-5-5-5---6-5-5-6-5-5-5--| 
|------------------------------|      |--------------------------------| 
|------------------------------|      |--------------------------------| 
|------------------------------|      |--------------------------------| 
|-0-0-0-1-1-1-0--2-31-41----|      |--------------------------------| 

Nos 2:43 da música, a primeira faz:  E a segunda: 
C#|----|                             |----------------------| 
G#|----|                             |----------------------| 
E |-7--|                             |----------------------| 
B |----|                             |----------------------| 
F#|----|                             |---------------*2b----| 
B |----|                             |-0-3-5-1-6-8-9--------| 
Nothing...                                           *Parte com A.H. 

Depois as duas guitarras: 
C#|-----------------------------------|  
G#|-----------------------------------|  
E |-----------------------------------|  
B |---------------*2------------------|  
F#|-0-3-5-1-6-8-9---------------------|  
B |-0-3-5-1-6-8-9---------------------|  
                  *Parte com A.H. 

Nos 3:28 da música, fica a segunda: 
C#|-----------------------------------|  
G#|-6-5-5-6-5-5-5---6-5-5-6-5-5-5-----|  
E |-----------------------------------|  
B |-----------------------------------|  
F#|-----------------------------------|  
B |-----------------------------------| 

Nos 3:46 da música a primeira começa com: 
C#|-----------------------------------|  
G#|-----------------------------------|  
E |-----------------------------------|  
B |-----------------------------------|  
F#|-----------------------------------|  
B |-0-0-0-3-3-3-2---------------------| 
Pull your hands away.... 

C#|-----------------------------------|  
G#|-----------------------------------|  
E |-----------------------------------|  
B |-----------------------------------|  
F#|-----------------------------------|  
B |-0-0-0-3-3-3-2---5-5-5-3-3-6-6-----| 
All I have is dead, so I'll take you with me... 

Se você reparar na parte final, pelos 4:18 da música a segunda guitarra faz: 
C#|-----------------------------------|  
G#|-A.H.------------------------------|  
E |-3b--------------------------------|  
B |-----------------------------------|  
F#|-----------------------------------|  
B |-----------------------------------| 
So kill me, just in case... 
share this page

See Also: