E-Chords
Stevie Ray Vaughan

Wham(Tabs)

Stevie Ray Vaughan

Key: E
 
Wham(Lonnie Mack) Versão do Stevie Ray Vaughan   
================= 
 
Transcrito por Rafael Santiago(ßeå/¡s)... Zzzzzzzzzz q sono! 
 
Guitarra afinada 1/2 tom abaixo... 
=slide down 
/=slide up 
^=bend 
~=vibrato 
p=pull-off 
h=hammer-on 
 
        E          F      F#       G      Ab        A     Bb      B  
|-0-0-0-0-0-0-0-1-1-1-1-2-2-2-2-3-3-3-3-4-4-4-4-5-5-5-5-6-6-6-6-7-7-7-7-| 
|-0-0-0-0-0-0-0-1-1-1-1-2-2-2-2-3-3-3-3-4-4-4-4-5-5-5-5-6-6-6-6-7-7-7-7-| 
|-1-1-1-1-1-1-1-2-2-2-2-3-3-3-3-4-4-4-4-5-5-5-5-6-6-6-6-7-7-7-7-8-8-8-8-| 
|-2-2-2-2-2-2-2-3-3-3-3-4-4-4-4-5-5-5-5-6-6-6-6-7-7-7-7-8-8-8-8-9-9-9-9-| 
|-2-2-2-2-2-2-2---------------------------------------------------------| 
|-0-0-0-0-0-0-0---------------------------------------------------------| 
 
 
/----------2x---------- 
|-3/4-4-0-2p0-0-0-2p0-0--3-3-0-2p0-0-0-2p0-0-3/4-4-10-12p10-10-10-12p10-10--12~- 
|-2/3-3-0-2p0-0-0-2p0-0--2-2-0-2p0-0-0-2p0-0-2/3-3-10-12p10-10-10-12p10-10--12~- 
|-3/4-4------------------2-2-----------------3/4-4-------------------------2---- 
|------------------------------------------------------------------------------- 
|------------------------------------------------------------------------------- 
|------------------------------------------------------------------------------- 
 
                 /-----------------2x------------------ 
--0------------|-3/4-4-0-2p0-0----------------------------3-3-0-2p0-0------------------------| 
--0------------|-2/3-3-0-2p0-0-----5-3p5-3----------------2-2-0-2p0-0-----5-3p5-3------------| 
-2---2-0p1h0---|-3/4-4----------2/4------------0p1h0------2-2---------2/4---------0p1h0------| 
-------------2-|-------------------------------------2----------------------------------2----| 
---------------|-----------------------------------------------------------------------------| 
---------------|-----------------------------------------------------------------------------| 
 
-3/4-4-0-2p0-0-0-2p0-0---2~--0-----------|--------------------------------------------| 
-2/3-3-0-2p0-0-0-2p0-0---2~--0-----------|-3p5-3-------------------3p5-3--------------| 
-3/4-4-----------------2---2---2-0p1h0---|-------2-1-----1---2-1---------2-1---1--2-1-| 
---------------------------------------2-|-----------2-2---2-----2----------2-2--2---2| 
-----------------------------------------|--------------------------------------------| 
-----------------------------------------|--------------------------------------------| 
  
           E               E   
|---------0-0-------------0-0----0-----------------3-3-3-x-3-----------------------3p5-5/7-5-3-- 
|---------0-0-------------0-0-0p3--3p5-5-----------3-3-3-x-3-----------3p5-3p5-3p5-------------- 
|---------1-1-0p1---------1-1------------0p1h0--------------------2-4--------------------------- 
|-------2-2-2-----------2-2-2------------------2---------------0-2------------------------------ 
|----2----2-2--------2----2-2-------------------------------0-2--------------------------------- 
|-0-3-----0-0-----0-3-----0-0------------------------------------------------------------------- 
 
-5-3-------------------------------------------------0-------------------------------3-5--5/7-- 
-----5-3-5-----3-----3-----3-----3-----3---------------3p5---3p5h3-0-3-0---------3/5------------ 
-----------2/4---3/4---3/4---3/4---3/4---0p2-0---------------------------2-0-------------------- 
-----------------------------------------------2-----------------------------2------------------ 
------------------------------------------------------------------------------------------------ 
------------------------------------------------------------------------------------------------ 
 
5/75/75/75/75/75/7--3p5h3-------------------------------------|-----------------------3-3-3--3- 
-------------------------------5-5-3p5h3-----3----------------------|-3-3-3--3-3------------3-3-3--3- 
-----------------------------------------2/4---3/4-0-0p2h0-2-0------|-1-1-1--1-1------------1-1-1--1- 
--------------------------------------------------------------2-0-2-|-2-2-2--2-2---0-2-0-2--2-2-2--2- 
--------------------------------------------------------------------|-------------2------------------ 
--------------------------------------------------------------------|------------3------------------- 
 
--3-------------|-------------------------------------------12--12-12-12-x-12--12-12-12-x-------| 
--3-----3-5-3-5-|--12-12-12-x-12--12-12-12-x-12--12-12-12-x-12--12-12-12-x-12--12-12-12-x-------| 
--1-0-4---------|--12-12-12-x-12--12-12-12-x-12--12-12-12-x-------------------------------------| 
--2-------------|-------------------------------------------------------------------------------| 
----------------|-------------------------------------------------------------------------------| 
----------------|-------------------------------------------------------------------------------| 
 
|----12---12---12----12----12----------------12-15^---12p15h12----------------------------------- 
|-15^--15^--15^---15^---15^----------------12------12---------15----12p15h12--------------------- 
|----------------------------12p14h12----14----------------------14----------14-12---12---------- 
|-------------------------------------14------------------------------------------14----14------- 
|------------------------------------------------------------------------------------------------ 
|------------------------------------------------------------------------------------------------ 
                                                                         /-------repicar------- 
-12--12-12-14-12-------------|----12---12---12---12---12---12---15-15-17/19-19-19-19-19-19-19-19- 
-12--12-12-14-12-------------|-15^--15^--15^--15^--15^--15^--17---------------------------------- 
-12--12-12-14-12-14-14-12p14-|------------------------------------------------------------------- 
-----------------14-14-12p14-|------------------------------------------------------------------- 
-----------------------------|------------------------------------------------------------------- 
-----------------------------|------------------------------------------------------------------- 
 
-15p17h15---17-15p17h15-------------12-12-12----------|-----12--12p15h12------------------------- 
---------17-------------17-12p14-12-12-12-12-12p14-12-|---12--12---------15-12-15---15---15------ 
---------------------------12p14-12----------12p14-12-|-14-----------------------14^--14^---14^-- 
---------------------------12p14-12----------12p14-12-|------------------------------------------ 
------------------------------------------------------|------------------------------------------ 
------------------------------------------------------|------------------------------------------ 
 
------------------------------------------------|-12-12--12p14-14-12-12------12-12--------------- 
---------------------------14-12----------------|-12-12--12p14-14-12-12------12-12--------------- 
-12-12p14h12---------------14-12----------------|-----------------------14-14------14-14-12p13h12 
-------------14---14-14-14------14-12-14--------|------------------------------------------------ 
-----------------------------------------14-14~-|------------------------------------------------ 
------------------------------------------------|------------------------------------------------ 
 
-------|--------------------------------------------------------------|-----12---12p15h12-------- 
-------|-----------------------------------------14-12----------14-12-|---12---12---------15-12-- 
-------|-12-12p13x-12p13-x-12p13-12p13-12p13--13-14-12-13-13-12-14-12-|-14---------------------12 
-12-14-|-12-12---x-12----x-12----12----12-----12-------14-14-12-------|--------------------------- 
-------|--------------------------------------------------------------|--------------------------- 
-------|--------------------------------------------------------------|--------------------------- 
                                                       E          F      F#       G      Ab    A 
---------------------------------3-3-3-3-------|-0-0-0-0-0-0-0-1-1-1-1-2-2-2-2-3-3-3-3-4-4-4-4-5- 
----3-----3-----3----3-----------3-3-3-3-------|-0-0-0-0-0-0-0-1-1-1-1-2-2-2-2-3-3-3-3-4-4-4-4-5- 
-2/4--3/4---3/4---3/4---0p2h0----1-1-1-1--0-2~-|-1-1-1-1-1-1-1-2-2-2-2-3-3-3-3-4-4-4-4-5-5-5-5-6- 
------------------------------2--2-2-2-2-------|-2-2-2-2-2-2-2-3-3-3-3-4-4-4-4-5-5-5-5-6-6-6-6-7- 
-----------------------------------------------|-2-2-2-2-2-2-2----------------------------------- 
-----------------------------------------------|-0-0-0-0-0-0-0----------------------------------- 
 
   A     Bb      B      /---------2x---------                          
-5-5-5-6-6-6-6-7-7-7-7-|-3/4-4-0-2h0-0-0-2h0-0--3-3-0-2h0-0-0-2h0-0--3/4-4-0-2h0- 
-5-5-5-6-6-6-6-7-7-7-7-|-2/3-3-0-2h0-0-0-2h0-0--2-2-0-2h0-0-0-2h0-0--2/3-3-0-2h0- 
-6-6-6-7-7-7-7-8-8-8-8-|-3/4-4------------------2-2------------------3/4-4------- 
-7-7-7-8-8-8-8-9-9-9-9-|--------------------------------------------------------- 
-----------------------|--------------------------------------------------------- 
-----------------------|--------------------------------------------------------- 
 
 
-0-0-2h0-10--2~---0-----------------|-3/4-4-0-2-0-----3/4---2~---0---0-------------------------------------3~-| 
-0-0-2h0-10--2~---0-----------------|-2/3-3-0-2-0-----2/3---2~---0----3-0---3------------------------------3~-| 
------------2---2---2-0p1h0---------|-3/4-4-----------3/4----------------2/4--2-0--------------------------1~-| 
----------------------------2-------|---------------------------------------------2-1-0--------------------2~-| 
------------------------------------|---------------------------------------------------2-1-0-0p1h0-----------| 
------------------------------------|---------------------------------------------------------------3-0-------| 
 
 
_______________________________________________________ 
Contribuição: Rafael Santiago([email protected]) 

roll up this ad to continue

share this page

See Also: