E-Chords
Stevie Ray Vaughan

The Sky Is Crying(Tabs)

Stevie Ray Vaughan

Key: Eb
Tuning Eb Ab Db Gb Bb Eb


E|-------12b(14)-12-107-------------7-------12b(14)---10----10-------------| 
B|-----------------------10p7-----------------------------12----12----10---| 
G|----------------------------9b(11)-------------------------------11------| 
D|-------------------------------------------------------------------------| 
A|-------------------------------------------------------------------------| 
E|-------------------------------------------------------------------------| 


E|-------12b(14)-12-107-------------7-------10b(12)-10b(12)-10b(11)--7-----| 
B|-----------------------10p7----------------------------------------------| 
G|----------------------------9b(11)---------------------------------------| 
D|-------------------------------------------------------------------------| 
A|-------------------------------------------------------------------------| 
E|-------------------------------------------------------------------------| 

E|--------------------------7-----------10--9-------------------19---------| 
B|-10p7-------------------7-------------10--9-------------------19---------| 
G|------9b(11)-7---9b(10)-----7---------10--9------------------------------| 
D|---------------9---------------9p7-----9--8------------------------------| 
A|-----------------------------------9--10--9------------------------------| 
E|-------------------------------------------------------------------------| 

E|-10b(12)-10b(12)-7---7-10-7--------------------------------7---------7-| 
B|-------------------7---------------------------------------------------| 
G|----------------------------------9~----------------9b(11)------7h9----| 
D|-----------------------------------------------------------------------| 
A|----------------------------7-8-9--------------------------------------| 
E|-------------------------------------------------------------7---------| 

E|-12b(14)---10----10-----------------------12b(14)--107-------------7-----| 
B|--------------12----12----10----------------------------10p7-------------| 
G|-----------------------11------------------------------------9b(11)------| 
D|-------------------------------------------------------------------------| 
A|-------------------------------------------------------------------------| 
E|-------------------------------------------------------------------------| 


E|----10b(12)-10b(12)-10b(11)--7----------------------------19---10--9-----| 
B|--------------------------------10p7----------------------19---10--9-----| 
G|-------------------------------------9b(11)-9b(11)--7~----------10--9----| 
D|-----------------------------------------------------------------9--8----| 
A|----------------------------------------------------------------10--9----| 
E|-------------------------------------------------------------------------| 


E|-----------------19----7---12b(14)-10b(12)-10b(12)-7---7-9---------------| 
B|-----------------19----7-----------------------------7-----7-10-7-10~----| 
G|------------------------7------------------------------------------------| 
D|------------------------6------------------------------------------------| 
A|------------------------7------------------------------------------------| 
E|-------------------------------------------------------------------------| 


E|-------10-12b(14)-12b(14)-12b(14)-12b(14)-10----10----------10-12b(14)-| 
B|-12-12---------------------------------------12-------12-12------------| 
G|-----------------------------------------------------------------------| 
D|-----------------------------------------------------------------------| 
A|-----------------------------------------------------------------------| 
E|-----------------------------------------------------------------------| 

E|-12b(14)-12b(14)-10-----------12b(14)b(15)-10b(12)-10b(12)-10b(11)-7---| 
B|--------------------12--12-12------------------------------------------| 
G|-----------------------------------------------------------------------| 
D|-----------------------------------------------------------------------| 
A|-----------------------------------------------------------------------| 
E|-----------------------------------------------------------------------| 


                                                            2:08 
E|-------12b(14)-12b(14)-10-----------12b(14)--12b(14)-10----------10----| 
B|-12-12--------------------12--12-12------------------------12-12-------| 
G|-----------------------------------------------------------------------| 
D|-----------------------------------------------------------------------| 
A|-----------------------------------------------------------------------| 
E|-----------------------------------------------------------------------| 

E|-12b(14)-12b(14)-12b(14)-10-----------12b(14)-10b(12)-7----------------| 
B|----------------------------12--12-12--------------------10p7----------| 
G|--------------------------------------------------------------9b(11)---| 
D|-----------------------------------------------------------------------| 
A|-----------------------------------------------------------------------| 
E|-----------------------------------------------------------------------| 


                                          2:21 
E|-------------7---7--------------------------------7-9-7h9p7------------| 
B|---------------7--------------------------------------------10p7-------| 
G|-7-9--9b(11)-------9b(11)-9b(11)-9p7-----7-9b(11)----------------------| 
D|-------------------------------------9---------------------------------| 
A|-----------------------------------------------------------------------| 
E|-----------------------------------------------------------------------| 


       just a bunch of notes in the scale including these... 
E|-----------------------------------------------------------------------| 
B|--------10p7-----------------------------------------------------------| 
G|-------------9b(10)-7---9b(11)-9p7-------------------------------------| 
D|----------------------9------------9-----------------------------------| 
A|-----------------------------------------------------------------------| 
E|-----------------------------------------------------------------------| 


   2:26 
E|--------7---7---7---7---7---10b(12)---10-12b(14)-10-------10-------10--| 
B|----------7---7---7---7---7-------------------------12-12----12-12-----| 
G|-9b(11)----------------------------------------------------------------| 
D|-----------------------------------------------------------------------| 
A|-----------------------------------------------------------------------| 
E|-----------------------------------------------------------------------| 

E|----10------------------10-12b(14)-12b-12b(14)-10b(12)-10--12b-12b-12b-| 
B|-12----12----10---12-12------------12b---------------------12b-12b-12b-| 
G|----------11------------------------0-----------------------0---0---0--| 
D|-----------------------------------------------------------------------| 
A|-----------------------------------------------------------------------| 
E|-----------------------------------------------------------------------| 

E|-10------------12b(14)----12b(14)-12b(14)-12b(14)-12b(14)-12b(14)------| 
B|----12---12-12---------------------------------------------------------| 
G|-----------------------------------------------------------------------| 
D|-----------------------------------------------------------------------| 
A|-----------------------------------------------------------------------| 
E|-----------------------------------------------------------------------| 


                         2:58 
E|-12b(14)-12b(14)-10--------------------9-7h9p7------9---10b(12)-10-7---| 
B|--------------------12---10p7--------7---------10p7---7--------------7-| 
G|------------------------------9b(11)-----------------------------------| 
D|-----------------------------------------------------------------------| 
A|-----------------------------------------------------------------------| 
E|-----------------------------------------------------------------------| 


                     not sure of the part here, but again - notes in scale 
E|-7---------------------------------------------------------------------| 
B|---10p7----------------------------------------------------------------| 
G|--------9b(11)-9b(11)-9p7----------------------------------------------| 
D|--------------------------9--------------------------------------------| 
A|-----------------------------------------------------------------------| 
E|-----------------------------------------------------------------------| 


   3:08 
E|--------7---7-10b(12)12b(14)-7---10b(12)-12b(14)-12b(14)-7---------------| 
B|----------7---------------------7------------------------------10-10-----| 
G|-9b(11)------------------------------------------------------------------| 
D|-------------------------------------------------------------------------| 
A|-------------------------------------------------------------------------| 
E|-------------------------------------------------------------------------| 

E|-10b(12)-10b(12)-12b(14)-12b(14)-14b(16)-14b(16)-12b(14)-10b(12)-12b(14---| 
B|--------------------------------------------------------------------------| 
G|--------------------------------------------------------------------------| 
D|--------------------------------------------------------------------------| 
A|--------------------------------------------------------------------------| 
E|--------------------------------------------------------------------------| 

E|-10b(12)-12b(14)-10-----------10b(12)12b(14)-7---------------------------| 
B|--------------------12--12-12---------------------10p7-------------------| 
G|-------------------------------------------------------9b(11)-7---9p7----| 
D|----------------------------------------------------------------9--------| 
A|-------------------------------------------------------------------------| 
E|-------------------------------------------------------------------------| 

E|----7-----------------------------------------------------7------------| 
B|----7------------------------------------------------------------------| 
G|----7---------9~-9~--------------------------------9b(11)--------------| 
D|-9--6------------------------------------------------------------------| 
A|----7--/7-8-9----------------------------------------------------------| 
E|-----------------------------------------------------------------------| 


E|-10b(12)-7---7-10b(12)/12b(14)-7---10b(12)-7---12b(14)-10-------10-----| 
B|-----------7---------------------7------------------------12-12--------| 
G|-----------------------------------------------------------------------| 
D|-----------------------------------------------------------------------| 
A|-----------------------------------------------------------------------| 
E|-----------------------------------------------------------------------| 


E|------------------------------12b(14)-10--------------------7----------| 
B|-----------------------------------------12----------------------------| 
G|-----------------------------------------------------9b(11)---9p7------| 
D|------------------------------------------------------------------9----| 
A|-----------------------------------------------------------------------| 
E|-----------------------------------------------------------------------| 


E|--------7-----------------------10--9--------------------------19--7-----| 
B|--------------------------------10--9--------------------------19--7-----| 
G|-9b(11)---9b(11)r9b(11)r9p7-----10--9-------------------------------7----| 
D|----------------------------9----9--8-------------------------------6----| 
A|--------------------------------10--9-------------------------------7----| 
E|-------------------------------------------------------------------------| 


E|-----------------------------10b(12)-10b(12)-7---7---------------------| 
B|-----------------------------------------------7----10p7---------------| 
G|----------------------------------------------------------9b(11)-9b(11)| 
D|-----------------------------------------------------------------------| 
A|-----------------------------------------------------------------------| 
E|-----------------------------------------------------------------------| 


E|-----------------------------------------------------------------------| 
B|------------10---9-----------------------------------------------------| 
G|--9p7-------10---9-----------------------------------------------------| 
D|------9------9---8-----------------------------------------------------| 
A|------------10---9-----------------------------------------------------| 
E|-----------------------------------------------------------------------| 

roll up this ad to continue

share this page

See Also: