E-Chords
Stevie Ray Vaughan

Testify(Tabs)

Stevie Ray Vaughan

 
+-----------------------------------------------+ 
|Testify (G. Clynton) versão Stevie Ray Vaughan |  
+-----------------------------------------------+ 
 
Transcrito por Rafael Santiago(ßeå/¡s) 
28/12/2001 15:50 hs... 
 
~{vibrato} 
^{bend} 
{slide up} 
/{slide down} 
h{hammer-on} 
p{pull-off} 
/ / /{palhetar} 
(){ghost note} 
...{repetir, repetir, repetir ... ... ... heheh...} 
ALV{Alavanca} 
 
############################################################################################### 
#Os bends, aki soh tah a indicaçaum q vc deve fazer... a melhor forma de pegar eh ouvindow... # 
#entaum... Ah! algumas partes taum diferentes... mas dah pra tokar... tenta ai!... As partes  # 
#q vc achar q naum taum legal tipow inventa a sua parte... assim eh q funciona!... YEAAAH!... # 
#                                     heheh...                                                # 
############################################################################################### 
 
OBS.: Eu separei a música de forma q fike mais fácil pra vc estudar... naum se assuste!... heheh! 
       
Afina a sua guitar 1/2 tom abaixo, e manda ver...      
 
groove: 
 
|-----------------------------| 
|-------------------8-8--8-8--| 
|-------------------7-7--7-7--|  
|-------------------6-6--6-6--| Algumas vezes...  
|---------5-5-6-6-7-7-7--7-7--| 
|-6h7-7-7---------------------| 
 
|--------------------------------------| 
|--------------------------------------| 
|--------------------------------8~~~~-| 
|--------------------------------7~~~~-| Isso aki eh qnd vc pára de tokar o riff e  
|---------5-5-6-6-7--------------------|  começa a solar... uma espécie de ponte... heheh... 
|-6h7-7-7-----------4-5-6-7------------| 
 
 
solo 1ª parte: 
 
|-----------------------------12---------------------------------------------|------12---- 
|--------------------------12-----15-12--------------------------------------|----12------ 
|-14^-(12)----12--------14--------------15-14p12-----12----------------------|-14--------- 
|----------14-----14------------------------------14----14---14p12----12h14--|------------ 
|------------------------------------------------------------------14--------|------------ 
|----------------------------------------------------------------------------|------------ 
 
|----12--------12-----12------12----------------------------|--------15^-15^-----12------- 
|-12---15^--------15^-----15^----15-12----------------------|-----12----------------15-12- 
|--------------------------------------14-12-12h14p12----12-|-14^------------------------- 
|-----------------------------------------------------14----|----------------------------- 
|-----------------------------------------------------------|----------------------------- 
|-----------------------------------------------------------|----------------------------- 
 
|---------------------------------------15^-15^-----12-----------------------|-----12----- 
|----15-12---------------------------12----------------15-12-----------------|---12--12--- 
|-14-------14-12-12h14p12--------14^-------------------------12-12h14p12-----|-14--------- 
|-------------------------14----------------------------------------------14-|------------ 
|----------------------------------------------------------------------------|------------ 
|----------------------------------------------------------------------------|------------ 
 
|---------12------------------------------------------------------------------------------ 
|-15^--------15-12------------------------------------------------------------------------ 
|------------------14-12----12-14-14^-12-14-12----------12----------------------------12-- 
|------------------------14--------------------12h14p12----14-12----------------12-14----- 
|----------------------------------------------------------------14-13-12----------------- 
|-------------------------------------------------------------------------10-12----------- 
 
|---------------|-19~~~~---15-17-17^-15-------15---------12------------------------12------| 
|-----------15-|-----------------------17-------17v-17v----15^-15^----12-------------12---| 
|-----------14-|---------------------------------------------------14----12-12-14------12-| 
|-14-12-14--13-|--------------------------------------------------------------------------| 
|-----------14-|--------------------------------------------------------------------------| 
|---------------|--------------------------------------------------------------------------| 
 
|-------12----12-15^-15^-----12--------------------------|-------------------------------- 
|----12----12-------------------15-12----15-12-----------|-------12-14-14^-12---12-14----- 
|-14----------------------------------14-------14^-12----|-------12-14-14^-12---12-14----- 
|-----------------------------------------------------14-|-12-14--------------14---------- 
|--------------------------------------------------------|-------------------------------- 
|--------------------------------------------------------|-------------------------------- 
 
|--------|---------------------------------12------------------------------------------------| 
|-14^-12-|-------------------------------12---15---------------------------------------------| 
|-14^-12-|----------------12-------12-14----------1h2-0-2-0----------------------------------| 
|--------|-14-12h14p12----------14--------------------------2-1-0-------------------0-2-0----| 
|--------|-------------14-----------------------------------------2-1-0-1-0---------------2--| 
|--------|------------------------------------------------------------------3-0-0-3----------| 
 
|------------0---0-----------------|-------------------------------------|-12-12-12-12-12--- 
|--------------3---3-0-----3-------|----12-12---12-12----12-12-----12-12-|-12-12-12-12-12--- 
|-3^-0h2-0-------------2h4---2-0---|-14------14-------14--------14-------|------------------ 
|----------2---------------------2-|-------------------------------------|------------------ 
|----------------------------------|-------------------------------------|------------------ 
|----------------------------------|-------------------------------------|------------------ 
 
|-12--15^-15^------12----------------------------------|---------------------------------- 
|-12------------------15-12----15-12-------------------|--------------------------14^-12-- 
|---------------------------14-------14-12-12h14p12----|-12-14^-12-14-------------14^-12-- 
|---------------------------------------------------14-|--------------14--12-14----------- 
|------------------------------------------------------|---------------------------------- 
|------------------------------------------------------|---------------------------------- 
 
|---------------------------------------------------|------------------------------------ 
|-14-12--------------12-14-12-------------------15-|------------------------------------ 
|-14-12--------------12-14-12-------------------14-|------------------------------------ 
|-------14-12-14-14-----------14-12-14-14 ...---13-|-------------------5h7-7-7-5-----7^- 
|-----------------------------------------------14-|-5-7-7-7-7-7-7-5-7-----------7------ 
|---------------------------------------------------|------------------------------------ 
 
|-------------------------------|---------------------------------------------------------- 
|-------------------------------|-------------------------------------------12--12-12--12-- 
|-------------------------------|------------------------7------------------12--12-12--12-- 
|-5h7p5-------------5h7-7-5-----|-7h9-9-9-9-9-9-9--7-9-9----9-7-9-9-7-9-------------------- 
|-------7-6-5---5-7---------7-5-|---------------------------------------------------------- 
|-------------7-----------------|---------------------------------------------------------- 
                   vai no ritmow 
|-----------------|-------------|------- 
|-14^-12-14-12----|-15---8---15-|------- 
|-14^-12-14-12----|-14---7---14-|-8~~~~- 
|--------------14-|-13---6---13-|-7~~~~- 
|-----------------|-14---7---14-|------- 
|-----------------|-------------|------- 
 
{groove} 
 
solo 2ª parte: 
 
|-------12-----12---12------------------------|-------------------------------------------- 
|-----12---15^---------15-12----15-12-15------|-12h14-14-12-12-------------12-------------- 
|-14------------------------14-------14^--12-|-12h14-14-12-12-------------12-------------- 
|---------------------------------------------|----------------14-12-14-14-------14-14-12-- 
|---------------------------------------------|-------------------------------------------- 
|---------------------------------------------|-------------------------------------------- 
                deixa td soar...  
|----|---------14--------14--------14-|-10-12 ...------17^---17^-15^-15-12h15p12----------- 
|----|------------12--------12--------|-10-12 ...--------------------------------15-12-15-- 
|----|-------14------14--------14-----|---------------------------------------------------- 
|-14-|----12--------------------------|---------------------------------------------------- 
|----|-14-----------------------------|---------------------------------------------------- 
|----|--------------------------------|---------------------------------------------------- 
 
|---------------------------------|-12--------12 ...----------------------------------|----- 
|-----15--------------------------|-12--------12 ...----------------------------------|----- 
|-14^----14-12-14-12----12-14-14^-|--------14^----------14-12-14----12------14^-15ALV-|----- 
|--------------------14-----------|------------------------------14----14-------------|-14-- 
|---------------------------------|---------------------------------------------------|----- 
|---------------------------------|---------------------------------------------------|----- 
 
|-------------------12-----15-15---12-12h15p12------------19^---17^-|-12------------------ 
|-12-------------12----12----------------------15-12----------------|-----15-12----------- 
|----14-12-14-------------------------------------------------------|-----------14-12----- 
|-------------------------------------------------------------------|-----------------14-- 
|-------------------------------------------------------------------|--------------------- 
|-------------------------------------------------------------------|--------------------- 
 
|---------------------------------|------------------------------------------------------- 
|---------------------------------|------------------------------------------------------- 
|-12-14--14^-14^-14^--12-------12-|----------------------------------12------------------- 
|------------------------14-12----|-14-12----------------------12-14------14-12----------- 
|---------------------------------|-------14-13-12h13p12------------------------14-13----- 
|---------------------------------|----------------------10-12---------------------------- 
 
|----------------------------------|-10-15-10 ...-------12-15^-15-12------------------------ 
|------------------------------15-|---------------------------------15-12------------------ 
|------------------------------14-|---------------------------------------15-14-12--------- 
|----------------12-14-12------13-|-------------------------------------------------14-12-- 
|-12h13p12----------------14---14-|-------------------------------------------------------- 
|----------10-12-------------------|-------------------------------------------------------- 
 
|--------------|-------------------------------------------------------------------------- 
|--------------|-------------------------------------------------------------------------- 
|----12-14-14^-|-12-14-14^-12---------12-14-14^-12-14-12-11-12-11-9-11-9-7-9-7-5-5h7p5---- 
|-14-----------|--------------14---------------------------------------------------------- 
|--------------|-------------------------------------------------------------------------- 
|--------------|-------------------------------------------------------------------------- 
 
|---------------------------|-------------------------------------------------| 
|-----------------------3---|-------------------------------------------------| 
|--4-4h6p4-2-2h4p2-0-3^---3-|-0----------------------------------------8~~~~-| 
|---------------------------|---2-1-0------------------2----2---0-2----7~~~~-| 
|---------------------------|---------2-1-0h1p0------2------------------------| 
|---------------------------|--------------------3-0--------------------------| 
 
{groove} 
 
 / / / / ... 
|----------------|-------12---------------------------------------------------------------| 
|-8--------------|----12----12-15-12------------------------------------------------------| 
|-7--------------|-14----------------15-14-12----12---------------------------------------| 
|----------------|----------------------------14-------12---------------------------------| 
|----------------|----------------------------------------14-13-12^p11--------------------| 
|----------------|--------------------------------------------------------0ALV---0PLOC!H--| 
 
Num tinha como naum fazer o PLOC! hauhauahauhaauahh! cool! =) 
 
 
 
_______________________________________________________ 
Contribuição: Rafael Santiago([email protected]) 

roll up this ad to continue

share this page

See Also: