E-Chords
Stevie Ray Vaughan

Love Struck Baby(Tabs)

Stevie Ray Vaughan

Key: D
 Intro 
E|-12-12-12-|-12-12-12-12-15----|10-10-10-10-13---5-|-5--8-8-8-8-8-8--------| 
B|-12-12-12-|-12-12-12-12-14----|10-10-10-10-12---5-|-5--7-7-7-7-7-7--------| 
G|----------|-------------------|-------------------|----8-8-8-8-8-8--------| 
D|----------|-------------------|-------------------|----7-7-7-7-7-7--------| 
A|----------|-------------------|-------------------|-----------------------| 
E|----------|-------------------|-------------------|-----------------------| 
                                                                              
E|--5-----------------------|-the verse is just a twelve bar blues----------| 
B|--5--5----5--5---5--5--5--|-in the key of A Stevie alternates-------------| 
G|-----7----7--7---7--7--7--|--notes from the 5th to the-6th as shown below-| 
D|-----6----6--6---6--6--6--|-----------------------------------------------| 
A|-----7----7--7---7--7--7--|---7-7-9-7-10-10-9-7---do this for the D and E-| 
E|--------------------------|---5-5-5-5--5--5-5-5----as well----------------| 
  
Ending                                                                       
E|--12-12-12-12-12---15-|--10-10-10-10-10-10----13-|-5--8-5----5------------| 
B|--12-12-12-12-12---14-|--10-10-10-10-10-10----12-|-5------b8-5------------| 
G|----------------------|--------------------------|-------------8-7-5------| 
D|----------------------|--------------------------|------------------------| 
A|----------------------|--------------------------|------------------------| 
E|----------------------|--------------------------|------------------------| 
                                                                              
E|-----------12-|    That is the intro and the ending I don't have time  
B|-----------12-|      to tab the solo right now, but it is a great 
G|-----------11-|      solo, a real good lesson in double stops and such.       
D|--7--5-----11-|      Hope you enjoy it!! 
A|--------7--12-| 
E|--------------| 

roll up this ad to continue

share this page

See Also: