E-Chords
Stevie Ray Vaughan

Lenny(Tabs)

Stevie Ray Vaughan

Key: E
Gtr I (E A D G B E) - 
 
  Q=58 
 4/4           3/4                3/8 
  Gtr I 
   ~~~~~~~~         ~~~~~~~~~~ 
                                               |-3--| 
   H     H      E   E    +H         S S T  T S T  T T T  T 
|-^9----------|---<12>-(<12>)----|-------------------------| 
|-^9----12----|---<12>-(<12>)----|-------------------------| 
|-^8----13----|------------------|-------------9h11p9------| 
|-^6----11----|------------------|-----------9-9------9h11-| 
|-^7----12----|------------------|----7-9S11---------------| 
|-------------|-0----------------|-/9----------------------| 
 
 
 4/4 
     ~ 
  Q  Q  +E  e a E. T T   E. S E. S S S T  T S a  S S a  S a  S 
|----9--(9)-7----------|---------------------------------------| 
|----9--(9)---7h9--7---|------5--0-----------------------------| 
|----8--(8)----------9-|------6--0------------9h11-9-----------| 
|----6--(6)------------|------4--0----------9--------9h11-9h11-| 
|----------------------|-------------7-9S11--------------------| 
|-0--------------------|-5--5------9---------------------------| 
 
 
      ~~ 
  Q   Q  +E  e a E. T T 
|----^9--(9)-7-----------| 
|----^9--(9)---7h9--7----| 
|----^8--(8)----------9--| 
|----^6--(6)-------------| 
|------------------------| 
|-0----------------------| 
 
 
       ~~                                      ~~ 
                           |-3--| |-3--| 
  E. S E. S  S S T  T S a  S S  S S  S S   Q   Q  +E  e a E. T T 
|----------------------------------------|----^9--(9)-7----------| 
|------5---------------------------------|----^9--(9)---7h9--7---| 
|------6--0-------------9h11-9-----------|----^8--(8)----------9-| 
|------4--0-----------9--------11------9-|----^6--(6)------------| 
|--------------7-9S11-------------9h11---|-----------------------| 
|-5--5------/9---------------------------|-0---------------------| 
 
 
       ~~                                        ~          ~~ 
            |-3-|             |-3--| 
  E. S E. S S S S S T  T S  S T  T T  S   S  S E Q  +E  e a E. T T 
|---------------------------------------|---12---9--(9)-7----------| 
|------5--5-----------------------------|---12---9--(9)---7h9--7---| 
|------6--6-------------------9h11p9----|--------8--(8)----------9-| 
|------4-----------------9-11--------11-|--------6--(6)------------| 
|-----------7h9---7-9S11----------------|--------------------------| 
|-5--5------0---7-----------------------|-0----0-------------------| 
 
 
       ~~                               ~~       ~ 
  E. S E. S   S S S S E S S   +S  S S S E. S S S E +S  S S S 
|---------------------------|--------------------------------| 
|------5----------5-----7---|-----------7----7---------0-----| 
|------6--6\-/6-----6S7---7-|-(7)-8-----8--------8-(8)---8---| 
|------4--4\-/4-4-----------|-------6---6------------------6-| 
|---------------------------|--------------------------------| 
|-5--5----------------------|---------7----7---7-------------| 
 
 
            ~~~          ~~ 
    E S  S  E.  S  S  S  E  +S   S  E 
|--------------------------------------| 
|----------10-----10------------10-----| 
|-----------------------11-(11)----11\-| 
|-----9-----------------------------9\-| 
|--------------------------------------| 
|-/10---10-----10----10----------------| 
 
 
        ~~     ~                          ~~ 
  E S S E. S E E +S  S S S    E S S S E S E. S  S S a E 
|--------------------------|----------------------------|| 
|-------3----3-------3-----|--------6-----5--0----------|| 
|--------------4-(4)---4---|----------7---6--0----------|| 
|---2--------------------2-|----5-----5---4--0----------|| 
|--------------------------|----------------------7-7h9-|| 
|-3---3----3---------------|-/6---6-----6------/9-------|| 
 
 
 . 
       ~~~~~~~~~~~~                                  ~~         ~~ 
  Q    H.        Q  +E. S S S S S  S S a S a S   Q   Q  +E  e a E. T T 
|----<12>------|-------------------------------|----^9--(9)-7----------| 
|----<12>------|-5--(5)s4-----5----------------|----^9--(9)---7h9--7---| 
|--------------|-6--(6)-------6----------------|----^8--(8)----------9-| 
|--------------|-4--(4)-------4----------------|----^6--(6)------------| 
|--------------|---------------------7-7h9-7h9-|-----------------------| 
|-0------------|-5--(5)---5-5---5-/9-----------|-0---------------------| 
 
 
       ~                    ~~~~      ~~~       ~~~ 
  E. S H    S S  S T  T    +Q   T  T  E.  T  T  E.  a  T  T  S  S  S 
|-----------------------|--------------------------------------------| 
|------5----7S9S12-9h12-|-(12)--9h12S14--12h14S17--14h17p14S12-14-12-| 
|------6----------------|--------------------------------------------| 
|------4----------------|--------------------------------------------| 
|-----------------------|--------------------------------------------| 
|-5--5------------------|--------------------------------------------| 
 
 
   S  s E E.  S  S  S  S  S  +S   S  S  S 
|---------------------12------------12-12-| 
|-14-12-----------------------------------| 
|---------------12-14-14-12-(12)----12-14-| 
|------------14------------------14-------| 
|-----------------------------------------| 
|-----------------------------------------| 
 
 
                           ~~~~~ 
   T  T  T  T  S  S  S  S  E  E  E Q 
|-12----------12----------------------| 
|-------------------------------------| 
|-14h15p14p12-14-14-12----------------| 
|----------------------14-14-14-11----| 
|-------------------------------------| 
|-------------------------------------| 
 
 
            |--3--| 
  Q  S.  T  S  S  S      S  S  S  E  E  T  T 
|--------------------------------------------| 
|--------------------------------------------| 
|----------12-14-14pb16-14p12----------------| 
|-------14--------------------14-14-14-11-14-| 
|--------------------------------------------| 
|--------------------------------------------| 
 
 
                                                                |--3--| 
   a  S.  T  a  S.  T  S  S  S.  T  S.  T  S.  T  a     +S.  T  S  S  S 
|--------------------------------------------------------------12--------| 
|-----------------------------------------------------------12----15-12--| 
|-12h13--14-12h13-------------------------12--13-14b16-(14)--------------| 
|------------------14--------------11--14--------------------------------| 
|---------------------14-12S11--14---------------------------------------| 
|------------------------------------------------------------------------| 
 
 
   |---3----|  |--3--|  |---3----|  |--3--|  |---3----|  |--3--|  |--3--|  |--3--| 
   S  T  T  S  S  S  S  S  T  T  S  S  S  S  S  T  T  S  S  S  S  S  S  S  S  S  S 
|-14-12h13p12-------15-12h14p12----12----12----------------------------------------| 
|-------------15-12-------------15----12----------------12-14-15-14-------14----12-| 
|-------------------------------------------15p14p12----12-14-15-14p12----14----12-| 
|----------------------------------------------------14----------------14----14----| 
|----------------------------------------------------------------------------------| 
|----------------------------------------------------------------------------------| 
 
 
   |------6-------|  |------6-------|  |------6-------|  |------6-------| 
   S  S  S  S  S  s  S  S  S  S  S  S  S  S  S  S  S  S  S  S  S  S  S  S 
|-------------------------------------12----------------------------------| 
|-------------------12----14-12----14-12----14----12----14----12-14-15-14-| 
|-------------------12----14-12----14-12----14----12----14----12-14-15-14-| 
|-14p12----12-14-------14-------14-------14----14----14----14-------------| 
|-------14----------------------------------------------------------------| 
|----------------12-------------------------------------------------------| 
 
 
   |--3--|     |--3--| 
   S  S  S  E  S  S  S  S.  T  E E S.  T  e 
|-------------------------------------------| 
|-12----------------------------------12-14-| 
|-12----------12-----------12---------------| 
|----14-12-14----14----14-----14------------| 
|-------------------14----------------------| 
|-------------------------------------------| 
 
 
   ~~ 
       |-------------6-------------| 
   Q   S  S  a     +S   S  S       S  E  E E  E 
|-12--15-12----------------------------------12\-| 
|--------------------------------------------12\-| 
|-----------14b15-(14)-14p12b12.5------------12\-| 
|---------------------------------14-14-11-------| 
|------------------------------------------------| 
|------------------------------------------------| 
 
 
  H    E.  S  S  S  S. T 
|---------12-------------| 
|---------12-14-12-------| 
|------------14-12-------| 
|------------------14--x-| 
|------------------------| 
|------------------------| 
 
 
      |--3--| 
   E  S  S  S  a  S.  T  a  S.  T  S.  T  S.  T  S.  T  S.  T 
|-------------------------------------------------------------| 
|-------------------------------------------------------------| 
|-------------12h13--14-12h13---------------------------------| 
|-14-11-14-------12------------14-----12-----14-----14-----12-| 
|---------------------------------14-----12-----11-----11-----| 
|----------12-------------------------------------------------| 
 
 
                        ~~~~~~~ 
                  |--3--|          |------6-------|  |------6-------| 
   S.  T  +S.  T  S  S  S  +S.  T  S  S  S  S  S  S  S  S  S  S  S  S 
|---------------------------------------------------------------------|| 
|---------------------------------------------------------------------|| 
|-----12-(12)----12S14-12-(12)-12-------------------------------------|| 
|-----11-(11)---------------------14p12-------------------12-12h14-12-|| 
|-12----------12------------------------14-13-12S10-12S14-------------|| 
|---------------------------------------------------------------------|| 
 
 
 . 
      ~~         ~~ 
  Q   Q  +E  e a E. T T 
|----^9--(9)-7----------| 
|----^9--(9)---7h9--7---| 
|----^8--(8)----------9-| 
|----^6--(6)------------| 
|-----------------------| 
|-0---------------------| 
 
 
       ~~ 
  E. S E. S S S T  T S a  T T  S T  T S 
|---------------------------------------| 
|------5--0-----------------------------| 
|------6--0------------9h11p9-----------| 
|------4--0----------9--------11------9-| 
|-------------7-9S11-------------9h11---| 
|-5--5------9---------------------------| 
 
 
      ~~         ~~ 
  Q   Q  +E  e a E. T T   E. S Q   S S S S +S  S S S 
|----^9--(9)-7----------|----------------------------| 
|----^9--(9)---7h9--7---|------5\------5-----------6-| 
|----^8--(8)----------9-|------6\--------6-(6)---7---| 
|----^6--(6)------------|------4\--------------------| 
|-----------------------|----------------------------| 
|-0---------------------|-5--5-----5-5---------6-----| 
 
 
            ~~                             ~~~ 
                                                       |-3--| 
  +S  S S S E. S E E +S  S S S     E S  S  E. S  S  S  T  T T  S  S  S T T S 
|------------------------------|---------------------------------------------| 
|-(6)S7-----7----7-------------|----------10----10-10-10---------10----------| 
|-----------8----8-8-(8)-8-----|----------11-----9-11--9h11p9-----9--------7-| 
|-------6------------------6-6-|-----9------------------------12----12-7h9---| 
|------------------------------|--------------0------------------------------| 
|---------7----7---------------|-/10---10------------------------------------| 
 
 
               ~                          ~~ 
   E. S E. S E E +S  S S S    E S S S E S E. S S. T T S. 
|--------------------------|-----------------------------|| 
|-------3----3-------3-----|--------6-----5--0-----------|| 
|-------4------4-(4)---4---|----------7---6--0-----------|| 
|-------3----------------2-|----5---------4--0-----------|| 
|--------------------------|----------------------7-7h9--|| 
|-\3--3----3---------------|-/6---6-----6------9---------|| 
 
 
 . 
       ~~~~                 ~ 
                                         |-3-| 
  Q    H.        E. S S S S S +Q     S S T T T S 
|----<12>------|---------------------------------| 
|----<12>------|------------5-(5)\---------------| 
|--------------|----------6----------------------| 
|--------------|------4--------------------------| 
|--------------|-----------------------7-7h9p7---| 
|-0------------|-5--5---5-----------/9---------9-| 
 
 
       |-3--| |-----6-----|  |-----6------| |---3---| |-3--| 
  S. T S  S S S  S S S  S S  S S  S S  S  S S  T T  S S  S S 
|---------------------------12-9-----------------------------| 
|--------------------------------12-9-----------------9------| 
|------------------9-9h11-9-----------12-11-9h11p9----9------| 
|-----------9-9h11---------------------------------11---11-9-| 
|-7--9-9S11--------------------------------------------------| 
|------------------------------------------------------------| 
 
 
  |-3--|               |-3-|      |----6----| 
  T  T T  S S.  T S. T S S S E. S S S S S S S 
|---------------------------------------------| 
|---------------------------------------------| 
|---------------------------------------------| 
|-9h11p9--------------------------------------| 
|--------11-9--11-7--9----------------7-7h9-7-| 
|----------------------7h9-7-5--x-7h9---------| 
 
 
                |---3---|       |---3---|          |--3--| 
  Q  +S.  a  T  S S  a  S  +E   S S  a  S  +S.  T  T  T  T  S 
|-----------12-12---12h14-(14)-12-----------------------------| 
|--------12h14-12---12h14-(14)-12------12-(12)-12-------------| 
|-----------------------------------11h13-(13)-13-11h13p11----| 
|----------------------------------------------------------14-| 
|-------------------------------------------------------------| 
|-0--(0)------------------------------------------------------| 
 
 
                              ~~~~~~~~ 
   |------6-------| 
   S  S  S  S  S  S  a  S  a  E.  +Q    E  E 
|--------------------------------------17\----| 
|-12------------------------------------------| 
|-11-14----------14----14----14--(14)---------| 
|-------------14-16----14----14--(14)---------| 
|-------14S16-------14h16-14h16--(16)---------| 
|---------------------------------------------| 
 
 
                 |----------6-----------|                   |--3--| 
   S.      T  E  S  S  a     +S   S  S  S  S.  T E S  T  T  S  S  S 
|-15b15.5-15-12-----------------------------------------------------| 
|---------------15p12-----------------------------------------------| 
|---------------------14b15-(15)-14p12------------------------------| 
|--------------------------------------14-14--11-----------------12-| 
|-------------------------------------------------------11-12S14----| 
|----------------------------------------------------12-------------| 
 
 
          |--3--|  |--3--| 
   S.  T  S  S  S  S  S  S  S.  T  S.  T  E Q 
|-----------------------------------------------| 
|-----12----12----14----12----------------------| 
|-----12----12----14----12------------12--------| 
|-14-----14----14----14----14--12-14-----14-----| 
|-----------------------------------------------| 
|-----------------------------------------------| 
 
 
                 ~~                                          ~ 
           |-3-|                          |----3----|          |-----6-----| 
  Q  S.  T S S S E. T T S. t E   Q  S T T S S a    +S  +S. T E S S S a S S S 
|------------------------------|----------------------------------------------| 
|------------------------------|----------------------------------------------| 
|------------------------------|-----------------------------------2-0h1------| 
|----------2---5-2--0----------|----------2---5b7==(7)-(7)-5-2-0---------2----| 
|-------/4---4--------2-1--0---|------2h4---4--------------------2------------| 
|------------------------------|-------------------------------------------0--| 
 
 
  |----6----| |----6----|   |-----6-----| |----6----| 
  S S S S S S S S S S S S a S S S S S a S S S S S S S 
|-----------------------------------------------------| 
|-----------------------------------------------------| 
|-----------------------------------------------------| 
|-0-2---0-2---0-2---0-2---0h2-0-----------------------| 
|-------------------------------2-1-0h1p0-----0---0---| 
|-----0-----0-----0-----0-----------------3-0---3---3-| 
 
 
    |-----6-----| |-----6-----| |-----6-----| |----6----| 
  a S S S S a S S S S S S a S S S S a S S S S S S S S S S 
|---------------------------------------------------------| 
|---------------------------------------------------------| 
|---------------------------------------------------------| 
|-----------------------------------------------------0---| 
|-1p0---0---1p0---0---0---1p0---0---1p0---0---0---0-------| 
|-----3---3-----3---3---3-----3---3-----3---3---3---3---3-| 
 
 
  |-3-|      |-3-|                 |-3-|            |-3-| 
  S S S S. T S S s E H      E S. T S S S S. T Q     T T T S  S.  T 
|-------------------------|----------------------------------------| 
|-------------------------|--------2---2-0----------------------12-| 
|-------2----0h1----------|--------2---2-0----------------x-14--12-| 
|-0h2---------------------|----------2------2-2tr0p=0h2p0-x--------| 
|-------------------------|----------------------------------------| 
|-----0----0-----0--------|------0---------------------------------| 
 
 
                    |-3-|                         |-3-| 
   +E   T  T  T  T  S S S   S.  T  E  T  T  T  T  S S S  S.  T 
|--------------------------------------------------------------| 
|-(12)------------------------------------------------------12-| 
|-(12)--------------------/14--12-12--------------------14--12-| 
|------14p12-------------------------14p12---------------------| 
|------------14p12S10----------------------14p12S10------------| 
|-----------------------0-----------------------------0--------| 
 
 
                      |--3--|  |------6-------|  |-----6------| 
   +E   S.  T  S.  T  S  S  S  S  S  S  S  S  S  s S  s S  S  S 
|--------------------------------------------12------------------| 
|-(12)------------------------12----------12----12---12---12-12--| 
|-(12)------------12----------12----12-14------------------------| 
|------14--12-14-----14p12-14----14------------------------------| 
|----------------------------------------------------------------| 
|----------------------------------------------------------------| 
 
 
            ~~ 
   |--3--|                                 |----------3----------| 
   S  S  S  E  S.  T      E E  a     +E   +E   a     +E   a     +E 
|-------15--------15b15.5-----17b19-(19)-(19)-17b19-(19)-17b19-(19)-| 
|-15-17----17-17----------------------------------------------------| 
|-------------------------------------------------------------------| 
|-------------------------------------------------------------------| 
|-------------------------------------------------------------------| 
|-------------------------------------------------------------------| 
 
 
                          |--3--| 
   a     +S.  T  E  S. T  S  S  S  a     E.  a      +S   +S.  +T   S.  T 
|-17b19-(19)-15----------15-17-19-15b17-15--15b17==(17)-(17)r(15)-----15--| 
|---------------17-17---------------------------------------------17------| 
|----------------------0--------------------------------------------------| 
|-------------------------------------------------------------------------| 
|-------------------------------------------------------------------------| 
|-------------------------------------------------------------------------| 
 
 
                    |--3--|                            |--3---| 
   S.  T  E  S.  T  S  S  S  E  S  T  T  S.  T  a     +S   S  S 
|-----15-----------15-17-19-15-------------------------------12-| 
|-17-----17-17--17-------------17-------------------------12----| 
|---------------------------------16S14p12-----14b16-(14)-------| 
|-------------------------------------------14------------------| 
|---------------------------------------------------------------| 
|---------------------------------------------------------------| 
 
 
   |----------6-----------|  |--3--|     |--3--|                            |--3--|  |--3--| 
   S  a     +S   S  S  S  S  S  S  S  E  S  S  S  a     +T   T  T  T  T  T  T  T  T  T  T  T  T  T 
|--------------------------------------------------------------12----------------------------------| 
|-15------------15----------12-14----12-14------------------12----15-12----------------------------| 
|----14b16-(14)----14p12----12-14-15-12-14----12-14b16-(16)-------------15-14p12----12-------------| 
|------------------------14----------------14------------------------------------14----14p12-------| 
|--------------------------------------------------------------------------------------------14----| 
|-----------------------------------------------------------------------------------------------12-| 
 
 
                                                                ~~~~~~~ 
   |--------6--------| 
   S  S  S  a  S  S  S  a  S.  T  a  S.  T Q  +E. S   Q  E. S S E. +E   S. T 
|---------------------------------------------------|------------------------| 
|-------------------------------------------------0-|-------5----------------| 
|-------------------------------------------------0-|---------6--------------| 
|-------12------------------------------------------|-----------4--(4)-------| 
|-12S14----13S12p10----10h11--12-10h11--12----------|----------------------7-| 
|-------------------12---------------------0--(0)---|-5----------------/9----| 
 
 
                          ~~~~ 
  S   S    S    S    S    E.   +H 
|-----------------------<12>-(<12>)----| 
|--------------------------------------| 
|------------------<12>----------------| 
|--------<12>--------------------------| 
|--------------------------------------| 
|-0-<12>------<12>---------------------| 
 
 
                                          . 
                                               ~~         ~~ 
                       |-3--| |-3--| 
  a a Q  Q  +S. T S. T S  S S T  T T  S    Q   Q  +E  e a E. T T 
|---------------------------------------||----^9--(9)-7-----------| 
|--------5--(5)-------------------------||----^9--(9)---7h9--7----| 
|--------6--(6)-4-----------9-9h11p9----||----^8--(8)----------9--| 
|-----4--4--(4)-4-----------9-9------11-||----^6--(6)-------------| 
|---x----------------7-9S11-------------||------------------------| 
|-x------5--(5)---9---------------------||-0----------------------| 
 
 
       ~~                                      ~~         ~~ 
  E. S E. S  S S a  S S a  S S a  S a  S   Q   Q  +E  e a E. T T 
|----------------------------------------|----^9--(9)-7----------| 
|------5---------------------------------|----^9--(9)---7h9--7---| 
|------6--0-------------9h11-9----9----9-|----^8--(8)----------9-| 
|------4--------------9----9-9-9h11-9h11-|----^6--(6)------------| 
|--------------7-9S11--------------------|-----------------------| 
|-5--5------/9---------------------------|-0---------------------| 
 
 
       ~~ 
  E. S E. S S S a  S S a  S S a  S a  S 
|---------------------------------------| 
|------5--------------------------------| 
|------6--0------------9h11-9----9----9-| 
|------4-------------9----9-9-9h11-9h11-| 
|-------------7-9S11--------------------| 
|-5--5------9---------------------------| 
 
 
                                                                   ~~ 
                                                         |-3--| 
  E  T T  T T  T  T T  T  T  T  T  a  T  +T   T  a  T T  S S  S a  E T  T a  S 
|---12-9-----------------------------------------------------------------------| 
|--------12-9------------------12------------12--------------------------------| 
|-------------12S11-9----11S13----11S13-(13)----13S11p9----9-11-9h11-9---------| 
|---------------------11--------------------------------11-------------11-9h11-| 
|------------------------------------------------------------------------------| 
|-0----------------------------------------------------------------------------| 
 
 
   +T  a  T T  T a  S a  T T S S T T S E  a  S  S  a  S.  T  a  S.  T 
|-------------------------------------------12-12-17S19--17-12S14--12-| 
|----------------------------------------12h14-12-17S19--17-12S14--12-| 
|---------------------------------------------------------------------| 
|-(11)-9h11p9-------9----9--------------------------------------------| 
|-------------11-9h11-9h11p9S7-9-----7--------------------------------| 
|--------------------------------7h9---0------------------------------| 
 
 
                                             ~~ 
         |--3--|  |--3--|     |--3--| 
   a  S  T  T  T  S  S  S  a  S  S  S  a  E  H 
|-------------------------------------------------| 
|----12-12----------12----------------------12----| 
|-11h13-11h13p11----11----------14-14----14-12----| 
|----------------14----14----14-14-14----14-12----| 
|-------------------------14h16-------14h16-14----| 
|-------------------------------------------------| 
 
 
                                       ~~~ 
  a a  a  S  S  a  S  S a E. S S   E.  Q 
|--------------------------------<12>-<5>--*| 
|--------------------------------<12>-<5>--*| 
|------------------------------------------*| 
|-x----------------------------------------*| 
|---x-------12-------10------7-------------*| 
|-----12h14----10h12----7h9----0-----------*| 

roll up this ad to continue

share this page

See Also: