E-Chords
Stevie Ray Vaughan

I'm Cryin'(Tabs)

Stevie Ray Vaughan

Key: E
                      by SRV 
E|---0-----0--b3--0-|----0-----0-----0----0-|---0--b3--0-----0--------------| 
B|-----b3-----------|----0-----0-----0----0-|---0---------b3--------0-------| 
G|------------------|----1-----1-----1----1-|---1---------------b2----------| 
D|------------------|-----------------------|-2-----------------------------| 
A|------------------|-------------2-----4---|-------------------------------| 
E|------------------|--0-----3--------------|-------------------------------| 
   The best way I find to get these bass notes in is to form the E chord and 
   use your pinky to finger the low notes. 
 
E|-----------------0----0-------|-0--0----0---0------0-|-b3-0---------------| 
B|-----------------0----0--2--0-|-0--0----0---0--b3----|--------------------| 
G|--0h1p0h1--------1----1--2--0-|---------1---1--------|---------2-2-2--2---| 
D|-------------------------2--0-|----------------------|---------2-2-4--2---| 
A|--------------------2---------|-----------2----------|------3-4-----------| 
E|-----------0--3---------------|-------3--------------|--------------------| 
 
E|-------b3--0------0-----------|-------------------0-----------------------| 
B|--------------b3--------------|-------------------0-----0-----------------| 
G|-2-------------------3p2p0----|-0h1------------------b2-------------------| 
D|-2--------------------------2-|-------------------------------------------| 
A|-0--0-------------------------|---------4--4--2---------------------------| 
E|------------------------------|------0--0--0--0---------------------------| 
 
E|----------------------0----0-|-3--0--------0------------------------------| 
B|----------------------0-b3---|-------0--------3p0-------------------------| 
G|-0h1p0h1---------------------|---------b2----------2--0-------------------| 
D|-----------------------------|---------------------------2----------------| 
A|--------------------2--------|-----------------------------0h2--2---------| 
E|----------0--b3--4-----------|--------------------------------------------| 
                                                                              
E|------------------------------|-------0-0-0-0-0-0----------|--------------| 
B|------------------------------|----2su3-3-3-3-3-3----------|--------------| 
G|------------------------------|---------------------2p0----|--------------| 
D|-0-1-2----------------------2-|---------------------------2|--------------| 
A|---------2-1--0h1p0-----0-----|----------------------------|-------0h1--2-| 
E|---------------------3----3---|-0--------------------------|--0--3--------| 
 
 Well,  now  sittin here so lonely  feelin'  oh  so blue   my baby  tryin' 
  E 
mistreat me and I don't  know what to do  So, I'm  cryin' 
                                                        A7 
Why do I have to feel this way?(fill)* If I can't love my baby 
 E                                          B7                 F#m  E 
I can't live another day!  (Turnaround below) 
A E 
   Turnaround                   Fill* 
E|-0-----------0---0----------|-0---------0-0--------------0------0--------0| 
B|-0--------3--3---3----------|-0------3--3-3----------------0-b3----------0| 
G|-1---2h4-------------2p0----|-1--2h4----------2p0-----------------0h1p0--1| 
D|--------------------------2-|---------------------2-----------------------| 
A|----------------------------|---------------------------------------------| 
E|----------------------------|--------------------------0------------------| 
  
 
The second and third verse follow the same chord progression(12 bar blues). 
This is the first solo,  
E|-------0-0-0-0-0-0-0-0-0-0-0-|-0-0-0-0-0-0-0-0-0-0-0-0-0-0-0-0-0-0-0| 
B|-2su3--3-3-3-3-3-3-3-3-3-3-3-|-3-3-3-3-3-3-3-3-3-3-3-3-3-3-3-3-3-3-3| 
G|-3su4--4-4-4-4-4-4-4-4-4-4-4-|-4-4-4-4-4-4-4-4-4-4-4-4-4-4-4-4-4-4-4| 
D|-----------------------------|--------------------------------------| 
A|-----------------------------|--------------------------------------| 
E|-----------------------------|--------------------------------------| 
 
E|-0-0-0-0-0-0-0-0-0-0-0-0-0-0-0-0-0-0-0| 
B|-3-3-3-3-3-3-3-3-3-3-3-3-3-3-3-3-3-3-3| 
G|-4-4-4-4-4-4-4-4-4-4-4-4-4-4-4-4-4-4-4| 
D|--------------------------------------| 
A|--------------------------------------| 
E|--------------------------------------| 
 
 
E|--------------------------------------------b3--3-0--------0-0------------| 
B|-3su5--3--0--3su5-3-0-3su5--3--0--------------------0------3-3------------| 
G|----------------------------------2p0-----------------2su4---4--2p0-------| 
D|--------------------------------------2------------------------------2----| 
A|------------------------------------------0-------------------------------| 
E|--------------------------------------------------------------------------| 
                                                                              
E|-------5-5-5--5--5-5--5--5------------0------0-----0--------------0----0-3-| 
B|-----5---5----8--5-5--8--5---------------b3--3--3--3----------------b3-----| 
G|---6------------------------2p0---0h1------------------b2p0---0h1----------| 
D|-0------------------------------2---------------------------2--------------| 
A|---------------------------------------------------------------------------| 
E|---------------------------------------------------------------------------| 
 
E|-0h2p0----0------------0-----------------------------------------0--------| 
B|-------3----3-0-------0------------------------------------------0--------| 
G|-----------------b2--2----2--0--------------------------------------------| 
D|-------------------------------2---------0-1-2---0------------------------| 
A|----------------------------------0h2-2------------2-0h1p0----------------| 
E|-----------------------------------------------------------3--0-----------| 
                                                                              
E|-----------------------------------|----12------12-12-12-12-12-12-12-12---| 
B|-2su3-3-3-3-3-3--------------------|-----9-------9--9--9--9--9--9--9--9---| 
G|-3sy4-4-4-4-4-4--2p0---------------|-12-11--12--11-11-11-11-11-11-11-11---| 
D|---------------------2-------------|----12------12-12-12-12-12-12-12-12---| 
A|----------------------------0h1--2-|--------------------------------------| 
E|-----------------------0--3--------|--------------------------------------| 
 
E|----------12-12-12-12-12-|-12----12-12-12-12-12-12-12-12------------------| 
B|---12-----12-12-12-12-12-|--9-----9--9--9--9--9--9--9--9------------------| 
G|---12-----12-12-12-12-12-|-12----11-11-11-11-11-11-11-11------------------| 
D|-11---11--11-11-11-11-11-|-12----12-12-12-12-12-12-12-12------------------| 
A|-------------------------|------------------------------------------------| 
E|-------------------------|------------------------------------------------| 
 
E|-------9----7--3-4-4-4-4-3-0-|-----------------5-5--7-6-5-----5--5--------| 
B|-------9----7----------------|-------5-6-4su5--5-5--------b8--5--5--------| 
G|----11-9----7--3-4-4-4-4-3-1-|--5su6-6-6-5su6-----------------------------| 
D|-12--------------------------|--6su7--------------------------------------| 
A|-----------------------------|--------------------------------------------| 
E|-----------------------------|--------------------------------------------| 
 
E|-----5-5-7-6-5-----5---------------0---0--0--0---------------0------------| 
B|-4-5-5-5-------b8--5---------------0---3--0--0------------------3--0--b3--| 
G|-5-6------------------2p0---2--0h1-1------------3p2p0----0h1--------------| 
D|--------------------------2---------------------------2-------------------| 
A|--------------------------------------------------------------------------| 
E|--------------------------------------------------------------------------| 
 
E|-0-0--0--0--------2----2-----2-|-b3--0---------0-0------------------------|   
B|---3--0--0---------------------|-------3-------3-3------------------------|   
G|---------------2----2----------|---------2su4-------2--0------------------|   
D|-------------------------------|-------------------------2-0-1-2----------|   
A|------------2------------------|------------------------------------------|   
E|-------------------------------|------------------------------------------|   
 
E|-----0-----0-0-0-0-0-0----------------------------------------------------|   
B|-----0--2--3-3-3-3-3-3----------------------------------------------------|   
G|-----1--3--4-4-4-4-4-4---2p0----------------------------------------------|   
D|-----------------------------2--------------------------------------------|   
A|--------------------------------------0h1-2-------------------------------|   
E|--0------------------------------0--3-------------------------------------| 

roll up this ad to continue

share this page

See Also: