E-Chords
Stevie Ray Vaughan

Gone Home(Tabs)

Stevie Ray Vaughan

Key: D#
Legend 
L - tied note 
x - dead note 
h - hammer on/pull off 
b - bend 
s - slide 
~ - vibrato 
g - ghost note 
> - accentuated note 
t - trill 
M - palm mute 
. - staccato 
P - popping (bass) 
S - slapping (bass) 
+ - tapping 
W - wide vibrato 
< - fade in 
w - whammy bar 
= - tremolo picking 
v - brush up 
^ - brush down 
V - pick stroke up 
n - pick stroke down 


D#|-------------| 
A#|-------------| 
F#|-------------| 
C#|-------------| 
G#|-------------| 
D#|-----10------| 


---------------------------------------------------------------------------------| 
---------------------------------------------------------------------------------| 
---------------------------------------------------------------------------------| 
--12.---------------------------------10.----------------------------------------| 
--------------------------------------------------------------------------10s11--| 
---------------------------------------------------------------------------------| 


-----------------------|----------------------------| 
-----------------------|----------------------------| 
-----------------------|----------------------------| 
-----------------------|----------------------------| 
-----------------------|-----10.------8.------------| 
-----------------------|----------------------------| 


--------------------------------------------------------------------------------| 
--------------------------------------------------------------------------------| 
--------------------------------------------------------------------------------| 
--------------------------------------------------------------------------------| 
--10s11.---------------------------------10.---------------------------------8.-| 
--------------------------------------------------------------------------------| 


-----------------------|-------|----------------------------| 
-----------------------|-------|----------------------------| 
-----------------------|-------|----------------------------| 
-----------------------|-------|--------12.------10.--------| 
-----------------------|-------|----------------------------| 
-----------------------|-------|--10.-----------------------| 


--------------------------------------------------------------------------------| 
--------------------------------------------------------------------------------| 
--------------------------------------------------------------------------------| 
--------------------------------------------------------------------------------| 
--10>11.---------------------------------10.---------------------------------8L-| 
--------------------------------------------------------------------------------| 


-----------------------|----------------------------| 
-----------------------|----------------------------| 
-----------------------|----------------------------| 
-----------------------|----------------------------| 
---------8b------------|----------------------------| 
-----------------------|--10.-----------------------| 


----------------------------|--------------------10.10---| 
--------------------6--5L---|--5-------------------------| 
--------------------5--4L---|--4-----------------10.12---| 
--------------------4--3L---|--3--------------12---------| 
----------------------------|----------------------------| 
----------------------------|----------------------------| 


----------------------------| 
----------------------------| 
--------------10------------| 
-----------------10g11-10L--| 
--------------------10-9L---| 
----------------------------| 


----------------------------------------------------------------------------| 
----------------------------------------------------------------------------| 
----------------------------------------------------------------------------| 
--10----------------10----12------------------------------------------------| 
--9-----------11-12-------------12L---12L------12s--------------------------| 
----------------------------------------------------------------------------| 


--------------------------------------12g----------------------------------------| 
--------------------------------------12>---------------------10-----------------| 
--------------------------------------12>---------------------10h11>-------------| 
--------------------12----------------------------12-------------------------12--| 
---------------------------------------------------------------------------------| 
---------------------------------------------------------------------------------| 


---------------------------------------------------10L-----------------| 
---------------------------------------------------10L-----------------| 
---------------------------------------------------10L-----------------| 
-----------------------------------------------------------------------| 
-----------------------------------------------------------------------| 
-----------------------------------------------------------------------| 


--10------------------------|-------| 
--10----------------10.-----|-------| 
--10----------------10.12---|-------| 
-----------------12---------|-------| 
----------------------------|-------| 
----------------------------|-------| 


----------------------------------------------------------------------------| 
----------------------------------------------------------------------------| 
----------------------------------------------------------------------------| 
--------------------10----12------------------------------------------------| 
--------10s---12----------------12L---12L------12s--------------------------| 
----------------------------------------------------------------------------| 


--------------------------------------------------------------------------------| 
--------------------------------------12>---------------------10----------------| 
--------------------------------------12>---------------------10h11>------------| 
--------------------12----------------------------12-------------------------12-| 
--------------------------------------------------------------------------------| 
--------------------------------------------------------------------------------| 


-----------------------------------------------------------------------| 
-----------------------------------------------------------------------| 
-----------------------------------------------------------------------| 
---------------------------------------------------9L------------------| 
-----------------------------------------------------------------------| 
-----------------------------------------------------------------------| 


----------------------------| 
-----------------10.--------| 
-----------10-11------------| 
--9-----12------------------| 
----------------------------| 
----------------------------| 


--------------------------------------------------------------------------------| 
--15>------13.---------------13h------10>---------------------------------------| 
--------------------------------------------------------14h---------------12.---| 
--------------------------------------------------------------------------------| 
--------------------------------------------------------------------------------| 
--------------------------------------------------------------------------------| 


--------------------------------------------------------------------| 
--------------------------------------------------------------------| 
------------12h---------------10L---------10b-----------------------| 
------------------------------------------------------12>-----------| 
--------------------------------------------------------------------| 
--------------------------------------------------------------------| 


--------------------------------------------------------------------------------| 
--------------------------------------------------------------------------------| 
--------------------------------------------------------------------------------| 
--------------------------------------------------------------------------------| 
--------------------------------------------------------------------------------| 
--------------------------------------------------------------------------------| 


------------------------------------------------------------------11>-----------| 
------------------------------------------------------------------11>-----------| 
------------------------------------------------------------------11>-----------| 
--------------------------------------------------------------------------------| 
--------------------------------------------------------------------------------| 
--------------------------------------------------------------------------------| 


----------12L---------------------------------------------12--------------------| 
----------12L---------------------------------------------12--------------------| 
----------12L---------------------------------------------12--------------------| 
--------------------------------------------------------------------------------| 
--------------------------------------------------------------------------------| 
--------------------------------------------------------------------------------| 


-------------------------------------------------------------| 
--------------10---------------------------------------------| 
--------------10h------11>-----------------------------------| 
-------------------------------------------------------------| 
-------------------------------------------------------------| 
-------------------------------------------------------------| 


----------------------------|--10.-----------------------| 
----------------------------|--10.------------------10---| 
----------------------------|--10.------10g---10g---10---| 
----------------------------|-----------9g----9g---------| 
----------------------------|----------------------------| 
--------------16>-----------|----------------------------| 


----------------------------|----------------------------| 
----------------------------|----------------------------| 
-----10g---------10g---12---|--10-11.--------------------| 
-----9g----------9g----10---|--9--10.--------------------| 
----------------------------|----------------------------| 
----------------------------|----------------------------| 


-----------------------------------------------------------------10>--------| 
-----------------------------------------------------------------10>--------| 
-----------------------------12-------10s---11-------------------10>--------| 
-----------------------------10-------9s----10------------------------------| 
----------------------------------------------------------------------------| 
----------------------------------------------------------------------------| 


-------|--------------10------------|----------------------------| 
-------|--------------10------------|----------------------------| 
-------|--------------10----10-10.--|--------------10-10.--------| 
-------|--------------------9--9.---|--------------9--9.---------| 
-------|----------------------------|----------------------------| 
-------|----------------------------|----------------------------| 


----------------------------------------------------------------------------| 
----------------------------------------------------------------------------| 
--10-------11-------------------------10s---11------------------------------| 
--9--------10g------------------------9s----10------------------------------| 
----------------------------------------------------------------------------| 
----------------------------------------------------------------------------| 


-----------------------12---| 
-----------------------12---| 
-----------------------12---| 
-----------14.--------------| 
-----------x.---------------| 
-----------12.--------------| 


--------------14----------------------------------------------------------------| 
--------------14----------------------13L---------13----------------------------| 
--------------14----------------------12L---------12----------------------------| 
--------------------------------------11L---------11----------------------------| 
--------------------------------------------------------------------------------| 
--------------------------------------------------------------------------------| 


-----------------------|----------------------------| 
------10L10------------|--------------12------------| 
------10h11.-----------|--------------12-------10s--| 
-----------------------|-----------------------9s---| 
-----------------------|----------------------------| 
-----------------------|----------------------------| 


----------------------------|--10>------------------10L--| 
----------------------------|--10>------------------10L--| 
--11.-----------------------|--10>------------------10L--| 
--10.-----------------------|--9>-------------------9L---| 
----------------------------|----------------------------| 
----------------------------|----------------------------| 


--10s-----------------------|----------------------------| 
--10s-----------------------|-----------------------10>--| 
--10s---------------10-9L---|--9--------------------9>---| 
--9s----------------11-10L--|--10-------------------10>--| 
--------------------10g9L---|--9-------------------------| 
----------------------------|----------------------------| 


--------------------------------------------------------------------------------| 
--------------------------------------------------10----------------------------| 
--------------------------------------------------9-----------------------10s11-| 
--------------------------------------------------10----------------------9s-10-| 
--------------------------------------------------------------------------------| 
--------------------------------------------------------------------------------| 


-----------------------|-----------------------10.--| 
---------10L-----------|--10-------------------10.--| 
---------10L-----------|--10-------------------10.--| 
---------9L------------|--9-------------------------| 
-----------------------|----------------------------| 
-----------------------|----------------------------| 


-----------10.--------------|-----------10.--------------|-------| 
-----------10.--------------|-----------10.--------------|-------| 
-----------10.------10-9L---|--9--------------------9.---|-------| 
--------------------11-10L--|--10-------------------10.--|-------| 
--------------------10-9L---|--9--------------------9.---|-------| 
----------------------------|----------------------------|-------| 


-----------------------12.--|--------------------12------| 
-----------------------12.--|-----------------10g12-10---| 
-----------------------12.--|-----------------10g12-10---| 
-----------------------11.--|----------------------------| 
----------------------------|----------------------------| 
----------------------------|----------------------------| 


----------------------------|--------------------10.-----| 
--------------12------------|-----------------13----13---| 
--------------12-10---------|----------------------------| 
-----------12g------12------|--12g-----------------------| 
----------------------------|----------------------------| 
----------------------------|----------------------------| 


--13s------15>---------------------------------15.------------------------------| 
--------------------------------------------------------------------------------| 
--------------------------------------------------------------------------------| 
--------------------------------------------------------------------------------| 
--------------------------------------------------------------------------------| 
--------------------------------------------------------------------------------| 


---------------------------13----------------------------------------------13>--| 
---------------------------------------------------15---------------------------| 
--------------------------------------------------------------------------------| 
--------------------------------------------------------------------------------| 
--------------------------------------------------------------------------------| 
--------------------------------------------------------------------------------| 


--------------------------------------------------------------------------------| 
-------------------------------15.----------------------------------------------| 
--------------------------------------------------------------------------------| 
--------------------------------------------------------------------------------| 
--------------------------------------------------------------------------------| 
--------------------------------------------------------------------------------| 


-------------------------------------------------------------| 
-----------13----------------------10------------------------| 
-------------------------------------------------------------| 
-------------------------------------------------------------| 
-------------------------------------------------------------| 
-------------------------------------------------------------| 


--10>-----------------------------------------------------------------------| 
-----------13-------------10------------------------------------------------| 
--------------------------------13s---12>------10---------------------------| 
--------------------------------------------------------------12----10------| 
----------------------------------------------------------------------------| 
----------------------------------------------------------------------------| 


----------------------------|----------------------------------------| 
----------------------------|----------------------------------------| 
--10.12.--------------------|--10h11-12-10h11------------------------| 
--------12.12.10.12.12.10.--|----------------------------------------| 
----------------------------|----------------------------------------| 
----------------------------|----------------------------------------| 


----------------------------------------------------------------------------| 
-----------------------------------------------------------------13>--------| 
--------------------------------10----12>------10---------------------------| 
--------------------------12----------------------------12------------------| 
----------------------------------------------------------------------------| 
----------------------------------------------------------------------------| 


-----------10---------------------------------------------------------------| 
--------------------13-------10---------------------------------------------| 
--------------------------------------13>---12----10------------------------| 
--------------------------------------------------------12------------------| 
-----------------------------------------------------------------12---------| 
----------------------------------------------------------------------------| 


--------------------------------------13>------15.--------------------------| 
--------------13----15.---------------------------------------15----15------| 
--10s---12------------------------------------------------------------------| 
----------------------------------------------------------------------------| 
----------------------------------------------------------------------------| 
----------------------------------------------------------------------------| 


--13.------15-------13h---14------------------------------------------------| 
--------------------------------15------------------------------------------| 
----------------------------------------------------------------------------| 
----------------------------------------------------------------------------| 
----------------------------------------------------------------------------| 
----------------------------------------------------------------------------| 


--13.------15-------13h---14------------------------------------------------| 
--------------------------------15------------------------------------------| 
----------------------------------------------------------------------------| 
----------------------------------------------------------------------------| 
----------------------------------------------------------------------------| 
----------------------------------------------------------------------------| 


--------------------------------------17>------17.--------------------------| 
--------------------------15------------------------------------------------| 
-----------14s------16----------16------------------------------------------| 
----------------------------------------------------------------------------| 
----------------------------------------------------------------------------| 
----------------------------------------------------------------------------| 


-----------15-------------15----15g-----------------------------------------| 
--------------------------------------18-------18-------------17----17------| 
----------------------------------------------------------------------------| 
----------------------------------------------------------------------------| 
----------------------------------------------------------------------------| 
----------------------------------------------------------------------------| 


----------------------------------------------------------------------------| 
--15.------15-------13.------13-------10.------10---------------------------| 
--------------------------------------------------------13>---12----12------| 
----------------------------------------------------------------------------| 
----------------------------------------------------------------------------| 
----------------------------------------------------------------------------| 


----------------------------| 
----------------------------| 
--10.10-9.-9--------10.-----| 
--------------12.12----12---| 
----------------------------| 
----------------------------| 


----------------------------------------------------| 
----------------------------------------------------| 
--10>12-------10.---12.------10-12.---------10.-----| 
-----------12.------------12>---------12.-----------| 
----------------------------------------------------| 
----------------------------------------------------| 


----------------------------------------------------| 
----------------------------------------------------| 
--12>---10.---12.---------10>12-------10.---12.-----| 
-----12-------------12.---------12.-----------------| 
----------------------------------------------------| 
----------------------------------------------------| 


--------------------------------------------------------------------------------| 
--------------------------------------------------------------------------------| 
-----------10----------------12-------------------10----------12----------------| 
--12>---------------------------------12>---------------------------------12>---| 
--------------------------------------------------------------------------------| 
--------------------------------------------------------------------------------| 


--------------------------------------------------------------------| 
--------------------------------------------------------------------| 
------10----------12----------------------10----------12------------| 
------------------------------12>-----------------------------------| 
--------------------------------------------------------------------| 
--------------------------------------------------------------------| 


--------------------------------------------------------------------------------| 
--------------------------------------------------------------------------------| 
--10h11L---------11s------------------------------------------------------------| 
--------------------------------------------------------------------------------| 
--------------------------------------------------------------------------------| 
--------------------------------------------------------------------------------| 


-----------------------|----------------------------------------------------| 
-----------------------|----------------------------------------------------| 
-----------------------|-----------10-12.---------10.---12----10-12.--------| 
-----------------------|--------12----------12.------------12----------12>--| 
-----------------------|----------------------------------------------------| 
-----------------------|----------------------------------------------------| 


----------------------------------------------------| 
----------------------------------------------------| 
-----10----12-------------10.---12.---------10.-----| 
-----------------12-------------------12.-----------| 
----------------------------------------------------| 
----------------------------------------------------| 


----------------------------------------------------------------------------| 
--12>---13----13----12.------12-------10.------10---------------------------| 
--13>---14----14----12.------12-------10.------10---------------------------| 
--------------------------------------------------------12.------12---------| 
----------------------------------------------------------------------------| 
----------------------------------------------------------------------------| 


--------------------------------------------------------------------------------| 
--------------------------------------------------------------------------------| 
--------------------------------------------------------------------------------| 
--10.---------------------------------10----------------------------------------| 
--------------------------------------------------------------------------10L---| 
--------------------------------------------------------------------------------| 


--------------------------------------------------------------------------------| 
--------------------------------------------------------------------------------| 
--------------------------------------------------------------------------------| 
--------------------------------------------------------------------------------| 
---10----------------------------------10----------------------------------8.---| 
--------------------------------------------------------------------------------| 


--------------------------------------------------------------------------------| 
--------------------------------------------------------------------------------| 
--------------------------------------------------------------------------------| 
--------------------------------------------------------------------------------| 
-------------------------------8-----------------------------------10s----------| 
--------------------------------------------------------------------------------| 


-------------------------------------------------------------| 
-------------------------------------------------------------| 
-------------------------------------------------------------| 
-------------------------------------------------------------| 
-----------11----------------------11------------------------| 
-------------------------------------------------------------| 


----------------------------| 
----------------------------| 
-----------12.--------------| 
-----------12.--------------| 
----------------------------| 
--12-12---------------------| 

                                      n  n 
--------------------------------------------------------------------------------| 
-----------------------------------------------------12.---------------------12-| 
-----------------------------------------------------12.---------------------12-| 
-----------------------------------------11----------11.------------------------| 
--------------11s---------12----------12----------------------------------------| 
--------------------------------------------------------------------------------| 


-----------------------| 
---------10.-----------| 
---------10.-----------| 
-----------------------| 
-----------------------| 
-----------------------| 


--------------------------------12>-----------------------------------------| 
--------------------------------12>---------------------12------------------| 
--------------------10----------12>13s12h---10----------12-------10---------| 
--12-------12-------------------------------------12g-----------------------| 
----------------------------------------------------------------------------| 
----------------------------------------------------------------------------| 


--------------------------------------10>---------------10----------------13>---| 
--------------------------10-------------------10----------------10-------------| 
--12L---------12-------------------------------------------------0g-------------| 
--------------------------------------------------------------------------------| 
--------------------------------------------------------------------------------| 
--------------------------------------------------------------------------------| 


------------10----------------10>-----------------------------------| 
---------------------10-------------------------10------------------| 
--------------------------------------------------------------------| 
--------------------------------------------------------------------| 
--------------------------------------------------------------------| 
--------------------------------------------------------------------| 


--13>10-------13>10----13>10----13>10----13>10------| 
--------10----------10-------x--------xg-------xg---| 
----------------------------------------------------| 
----------------------------------------------------| 
----------------------------------------------------| 
----------------------------------------------------| 


--13>10----13>10----13>10----13>10----13>10----13>--| 
--------10-------10-------10-------10-------10------| 
----------------------------------------------------| 
----------------------------------------------------| 
----------------------------------------------------| 
----------------------------------------------------| 


--10----13>10----13>10----13>10----13>10----13>10---| 
-----x--------xg-------xg-------xg-------xg---------| 
----------------------------------------------------| 
----------------------------------------------------| 
----------------------------------------------------| 
----------------------------------------------------| 


--------------13>---------10----------------------13>---------10----------------| 
--xg----------------------------------10-------------------------------------xg-| 
--------------------------------------------------------------------------------| 
--------------------------------------------------------------------------------| 
--------------------------------------------------------------------------------| 
--------------------------------------------------------------------------------| 


------------13>------------10----------------------------13>------------10------| 
------------------------------------------xg------------------------------------| 
--------------------------------------------------------------------------------| 
--------------------------------------------------------------------------------| 
--------------------------------------------------------------------------------| 
--------------------------------------------------------------------------------| 


----------------------13>------------10----------------------------13s----------| 
-------10-------------------------------------------10--------------------------| 
--------------------------------------------------------------------------------| 
--------------------------------------------------------------------------------| 
--------------------------------------------------------------------------------| 
--------------------------------------------------------------------------------| 


----|--15>---13L---13------------------------------------| 
----|-----------------15-13-10---------------------------| 
----|--------------------------13-12h10----10.-----------| 
----|-----------------------------------12g--------------| 
----|----------------------------------------------------| 
----|----------------------------------------------------| 


--------------------------------------------------------------------------------| 
--------------------------------------------------------------------------------| 
--------------------------------------------------------------------------------| 
--------------------------------------------------------------------------------| 
--------------------------------------8h----------------------------------10s---| 
--------------------------------------------------------------------------------| 


--------------------------------------------------------------------------------| 
--------------------------------------------------------------------------------| 
------------------------------------------------10------------------------------| 
------------------------------------------------10------------------------------| 
------------12------------------------------------------------------------------| 
--------------------------------------------------------------------------------| 


--------------------------------------------------------------------------------| 
--------------------------------------------------------------------------------| 
--------------------------------------------------------------------------------| 
--------------------------------------------------------------------------------| 
----12s---------------------------------10h---------------------------------8---| 
--------------------------------------------------------------------------------| 

                                n                 n 
--------------------------------------------------------------------------------| 
--------------------------------------------------------------------------------| 
--------------------------------------------------------------------------------| 
--------------------------------------------------------------------------------| 
--------------------------------------------------8h----------------10s------11-| 
--------------------------------10----------------------------------------------| 


--------------------------------------------------------------------------------| 
--------------------------------------------------------------------------------| 
--------------------------------------------------------------------------------| 
--------------------------------------------------------------------------------| 
---------------------------------10h---------------------------------8----------| 
--------------------------------------------------------------------------------| 

                         n                                   n 
--------------------------------------------------------------------------------| 
--------------------------------------------------------------------------------| 
--------------------------------------------------------------------------------| 
--------------------------------------------------------------------------------| 
-------------------------------------------------------------8h-----------------| 
-------------------------10-----------------------------------------------------| 


--------------------------------------------------------------------------------| 
--------------------------------------------------------------------------------| 
--------------------------------------------------------------------------------| 
-----------------------------------------10h---------------------12-------------| 
-----10s---------12-------------------------------------------------------------| 
--------------------------------------------------------------------------------| 


-----------------------------------------------------------| 
-----------------------------------------------------------| 
-----------------------------------------------------------| 
-----------------------------------------------------------| 
-----------------------------------------------------------| 
-----------------------------------------------------------| 


--------------------------------------------------------------------------------| 
--10>---------------------------------------------------------------------------| 
--10>---------------12L------12L---------------12h---------------10-------------| 
--------------------------------------------------------------------------------| 
--------------------------------------------------------------------------------| 
--------------------------------------------------------------------------------| 


---------------------------------------------------------------------------10>--| 
---------------------------------------------------------------10---------------| 
---------------------10----------------12L---------12---------------------------| 
---12---------------------------------------------------------------------------| 
--------------------------------------------------------------------------------| 
--------------------------------------------------------------------------------| 


--------------------------------------------------------------------------------| 
-------13h---------10-----------------------------------------------------------| 
-------------------------------12L------12----------------12h---------------10.-| 
--------------------------------------------------------------------------------| 
--------------------------------------------------------------------------------| 
--------------------------------------------------------------------------------| 


----------------------------------------------------------------------| 
----------------------------------------------------------------------| 
----------------------------------------------------------------------| 
--------------------------------12.-----------------------------------| 
----------------------------------------------------------------------| 
----------------------------------------------------------------------| 


--------------------------------------------------------------------------------| 
--------------------------------------------------------------------------------| 
--------------------------------------------------------------------------------| 
--x-----------------------------------------10----------------------------------| 
--x-----------------8h-------10s------12----------------------------------8-----| 
--x-----------------------------------------------17h---15h---13h---10----------| 


--------------------------------------------------------------------| 
--------------------------------------------------------------------| 
--------------------------------------------------------------------| 
--------------------------------------------------------------------| 
--------------------------------------------------------------------| 
--------------------------------------------------------------------| 


----------------------------------------------------------------------------| 
--------------------------------------10-------10---------------------------| 
--------------------------------9s-10---------------------------------------| 
-----------9>-------12------------------------------------------------------| 
----------------------------------------------------------------------------| 
----------------------------------------------------------------------------| 


-----------------------------------------------x--------9s-------10L------------| 
--------------------------------------x-----------------9s-------10L------------| 
--------------------------------------------------------------------------------| 
--------------------------------------------------------------------------------| 
--------------------------------------------------------------------------------| 
--------------------------------------------------------------------------------| 


---------------------10---------------------------------------------------------| 
---------------------10----------------------12h---------------------10---------| 
---------------------------------------------12h---------------------10---------| 
--------------------------------------------------------------------------------| 
--------------------------------------------------------------------------------| 
--------------------------------------------------------------------------------| 


-------------12-----------------------------------------------------------------| 
-------------12----------------------------------10.----------------------------| 
-------------12----------------------------------10.----------------------------| 
--------------------------------------------------------------------------------| 
--------------------------------------------------------------------------------| 
--------------------------------------------------------------------------------| 


-------------------------------------------------------------------------------| 
-------------------------------------------------------------------------------| 
-------------------------------------------------------------------------------| 
-----12----------------------------------10------------------------------------| 
-------------------------------------------------------------------------------| 
-------------------------------------------------------------------------------| 


--------------------------------------------------------------------------------| 
--------------------------------------------------------------------------------| 
--------------------------------------------------------------------------------| 
--12----------------------------------------------------------------------------| 
--------------------------------------------------------------------------------| 
--------------------------------------------------------------------------10----| 


--------------------------------------------------------------------------------| 
------------------12>-----------------------------------------------------------| 
------------------12>-----------------------------------------------------------| 
------------------12>-----------------------------------------------------------| 
--------------------------------------------------------------------------------| 
--------------------------------------------------------------------------------| 


---------------------------------------------| 
----------10L------10>-----------------------| 
----------10h------11>-----------------------| 
----------10L------10>-----------------------| 
---------------------------------------------| 
---------------------------------------------| 


--------------------------------------------------------------------------------| 
--------------------------------------------------------------------------------| 
--------------------------------------------------------------------------------| 
-----------------------------------------------------------------------------10-| 
--------------------------10s12>------------------------------------------------| 
--------------------------------------------------------------------------------| 


-----------------------| 
-----------------------| 
-----------------------| 
-----------------------| 
-----------------------| 
-----------------------| 


---------------------------------------------------------------------------------| 
---------------------------------------------------------------------------------| 
---------------------------------------------------------------------------------| 
--12.---------------------------------10.----------------------------------------| 
--------------------------------------------------------------------------10s11--| 
---------------------------------------------------------------------------------| 


-----------------------|----------------------------| 
-----------------------|----------------------------| 
-----------------------|----------------------------| 
-----------------------|----------------------------| 
-----------------------|-----10.------8.------------| 
-----------------------|----------------------------| 


--------------------------------------------------------------------------------| 
--------------------------------------------------------------------------------| 
--------------------------------------------------------------------------------| 
--------------------------------------------------------------------------------| 
--10s11.---------------------------------10.---------------------------------8.-| 
--------------------------------------------------------------------------------| 


-----------------------|-------|----------------------------| 
-----------------------|-------|----------------------------| 
-----------------------|-------|----------------------------| 
-----------------------|-------|--------12.------10.--------| 
-----------------------|-------|----------------------------| 
-----------------------|-------|--10.-----------------------| 


--------------------------------------------------------------------------------| 
--------------------------------------------------------------------------------| 
--------------------------------------------------------------------------------| 
--------------------------------------------------------------------------------| 
--10s11.---------------------------------10----------------------------------8L-| 
--------------------------------------------------------------------------------| 


-----------------------|----------------------------|-----x>---------| 
-----------------------|----------------------------|-----x>---------| 
-----------------------|----------------------------|----------------| 
-----------------------|----------------------------|----------------| 
---------8b------------|----------------------------|----------------| 
-----------------------|--10------------------------|----------------| 


----------------------------|----------------------------| 
----------------------------|--------------10.-----------| 
----------------------------|--------------10.---10-9L---| 
-----------------12---------|--------------------11-10L--| 
----------------------------|--------------------10-9L---| 
----------------------------|----------------------------| 


--------------------------------------------------------------------------------| 
--------------------------------------------------------------------------------| 
--9-----------------------------------------------------------------------------| 
--10----------------------------------------------------------------------------| 
--9-----------------------------------11s------12-------------------------------| 
--------------------------------------------------------------------------------| 


--------------------------------------------------------------------------------| 
--------------------------------------------------------------------------------| 
--------------------------------------------------------------------------------| 
---10>---------------------12---------------------------------------------------| 
---------------------------------------------------12L---------------------12L--| 
--------------------------------------------------------------------------------| 


--------------------------------------------------------------------------------| 
--------------------------------------------------------------------------------| 
--------------------------------------------------------------------------------| 
--------------------------------------------------------------------------------| 
-------------------------------12s----------------------------------------------| 
--------------------------------------------------------------------------------| 


-------------------------------------------------------------| 
-------------------------------------------------------------| 
-------------------------------------------------------------| 
-------------------------------------------------------------| 
-------------------------------------------------------------| 
-------------------------------------------------------------| 


--------------------------------------------------------------------------------| 
--------------------------------------12>---------------------10L10>------------| 
--------------------------------------12>---------------------10h11>------------| 
--------------------12----------------------------12-------------------------12-| 
--------------------------------------------------------------------------------| 
--------------------------------------------------------------------------------| 


---------------------------------------------------10L-----------------| 
---------------------------------------------------10L-----------------| 
---------------------------------------------------10L-----------------| 
---------------------------------------------------9L------------------| 
-----------------------------------------------------------------------| 
---------------------------------10------------------------------------| 


--10------------------------|----------------------------| 
--10------------------------|----------------------------| 
--10------------------------|--------------10.---10-9L---| 
--9--------------12---------|--------------------11-10L--| 
----------------------------|--------------------10-9L---| 
----------------------------|----------------------------| 


--------------------------------------------------------------------------------| 
--------------------------------------------------------------------------------| 
--9-----------------------------------------------------------------------------| 
--10----------------------------------------------------------------------------| 
--9-----------------------------------10s------12-------------------------------| 
--------------------------------------------------------------------------------| 


--------------------------------------------------------------------------------| 
--------------------------------------------------------------------------------| 
--------------------------------------------------------------------------------| 
---10>---------------------12---------------------------------------------------| 
---------------------------------------------------12L---------------------12L--| 
--------------------------------------------------------------------------------| 


--------------------------------------------------------------------------------| 
--------------------------------------------------------------------------------| 
--------------------------------------------------------------------------------| 
--------------------------------------------------------------------------------| 
-------------------------------12s----------------------------------------------| 
--------------------------------------------------------------------------------| 


-------------------------------------------------------------| 
-------------------------------------------------------------| 
-------------------------------------------------------------| 
-------------------------------------------------------------| 
-------------------------------------------------------------| 
-------------------------------------------------------------| 


--------------------------------------------------------------------------------| 
--------------------------------------12>---------------------10L10>------------| 
--------------------------------------12>---------------------10h11>------------| 
--------------------12----------------------------12-------------------------12-| 
--------------------------------------------------------------------------------| 
--------------------------------------------------------------------------------| 


-----------------------------------------------------------------------| 
-----------------------------------------------------------------------| 
-----------------------------------------------------------------------| 
---------------------------------------------------9L------------------| 
-----------------------------------------------------------------------| 
-----------------------------------------------------------------------| 


----------------------------| 
-----------------10.--------| 
-----------10-13>-----------| 
--9-----12------------------| 
----------------------------| 
----------------------------| 


--------------------------------------------------------------------------------| 
--15>------13.---------------13h------10.---------------------------------------| 
--------------------------------------------------------14h---------------12.---| 
--------------------------------------------------------------------------------| 
--------------------------------------------------------------------------------| 
--------------------------------------------------------------------------------| 


--------------------------------------------------------------------|-----12---| 
--------------------------------------------------------------------|-----12---| 
------------12----------------10L---------10b-----------------------|-----12---| 
------------------------------------------------------12------------|-----12---| 
--------------------------------------------------------------------|----------| 
--------------------------------------------------------------------|----------| 

  n        n        n        n        n 
--------------------------------------------------------------------------------| 
--------------------------------------10----------------------------------------| 
-----------------------------10h------11----------------------------------------| 
--------------------10----------------------------------------------------------| 
-----------x--------------------------------------------------------------------| 
--10----------------------------------------------------------------------------| 


--------------------------------------------------------------------------------| 
--------------------------------------------------------------------------------| 
--------------------------------------------------------------------------------| 
--------------------------------------------------------------------------------| 
--------------------------------------------------------------------------------| 
--------------------------------------------------------------------------------| 


----------------------13>---------10----------------------10--------------------| 
----------------------------------------------13--------------------------------| 
--------------------------------------------------------------------------------| 
--------------------------------------------------------------------------------| 
--------------------------------------------------------------------------------| 
--------------------------------------------------------------------------------| 


--------------------------------------------------------------------------------| 
--------------13>---10----------------------------10L---------------------------| 
--------------------------------------12----------------------------------------| 
--------------------------------------------------------------------------------| 
--------------------------------------------------------------------------------| 
--------------------------------------------------------------------------------| 


--------|-------|| 
--------|--10---|| 
--------|-------|| 
--------|-------|| 
--------|-------|| 
--------|-------|| 

Clean Guitar 

D#|-------|-------|-------|-------|-------|-------|-------|-------|-------| 
A#|-------|-------|-------|-------|-------|-------|-------|-------|-------| 
F#|-------|-------|-------|-------|-------|-------|-------|-------|-------| 
C#|-------|-------|-------|-------|-------|-------|-------|-------|-------| 
G#|-------|-------|-------|-------|-------|-------|-------|-------|-------| 
D#|-------|-------|-------|-------|-------|-------|-------|-------|-------| 


--------------------10.10---| 
----------------------------| 
--------------------10.12---| 
-----------------12---------| 
----------------------------| 
----------------------------| 


--10>---------10----------------------------------------------------------------| 
--------------------------------------------------------------------------------| 
--12>---------13s12-------------------------------------------------------------| 
-----------------------------12-------------------------------------------------| 
--------------------------------------------------------------------------------| 
--------------------------------------------------------------------------------| 


-----------------------|-------|-------|-------| 
-----------------------|-------|-------|-------| 
-----------------------|-------|-------|-------| 
-----------------------|-------|-------|-------| 
-----------------------|-------|-------|-------| 
-----------------------|-------|-------|-------| 


--10----------------------10----------------------------------------------------| 
-----------------------------------------------------10g------------------------| 
--12s---------13----------13s12----------------------10-------------------------| 
-----------------------------------------12----------------------------------11-| 
-----------------------------------------------------------------------------10-| 
--------------------------------------------------------------------------------| 


-----------------------|----------------------------|-------|-------|-------| 
-----------------------|----------------------------|-------|-------|-------| 
-----------------------|----------------------------|-------|-------|-------| 
---------10L-----------|--10------------------------|-------|-------|-------| 
---------9L------------|--9-------------------------|-------|-------|-------| 
-----------------------|----------------------------|-------|-------|-------| 


-------|-------|-------|-------|-------|-------|-------|-------|-------|-------| 
-------|-------|-------|-------|-------|-------|-------|-------|-------|-------| 
-------|-------|-------|-------|-------|-------|-------|-------|-------|-------| 
-------|-------|-------|-------|-------|-------|-------|-------|-------|-------| 
-------|-------|-------|-------|-------|-------|-------|-------|-------|-------| 
-------|-------|-------|-------|-------|-------|-------|-------|-------|-------| 


-------|-------|-------|-------|-------|-------|-------|-------|-------|-------| 
-------|-------|-------|-------|-------|-------|-------|-------|-------|-------| 
-------|-------|-------|-------|-------|-------|-------|-------|-------|-------| 
-------|-------|-------|-------|-------|-------|-------|-------|-------|-------| 
-------|-------|-------|-------|-------|-------|-------|-------|-------|-------| 
-------|-------|-------|-------|-------|-------|-------|-------|-------|-------| 


-------|-------|-------|-------|-------|-------|-------|-------|-------|-------| 
-------|-------|-------|-------|-------|-------|-------|-------|-------|-------| 
-------|-------|-------|-------|-------|-------|-------|-------|-------|-------| 
-------|-------|-------|-------|-------|-------|-------|-------|-------|-------| 
-------|-------|-------|-------|-------|-------|-------|-------|-------|-------| 
-------|-------|-------|-------|-------|-------|-------|-------|-------|-------| 


-------|-------|-------|-------|-------|-------|-------|-------|-------|-------| 
-------|-------|-------|-------|-------|-------|-------|-------|-------|-------| 
-------|-------|-------|-------|-------|-------|-------|-------|-------|-------| 
-------|-------|-------|-------|-------|-------|-------|-------|-------|-------| 
-------|-------|-------|-------|-------|-------|-------|-------|-------|-------| 
-------|-------|-------|-------|-------|-------|-------|-------|-------|-------| 


-------|-------|-------|-------|-------|-------|-------|-------|-------|-------| 
-------|-------|-------|-------|-------|-------|-------|-------|-------|-------| 
-------|-------|-------|-------|-------|-------|-------|-------|-------|-------| 
-------|-------|-------|-------|-------|-------|-------|-------|-------|-------| 
-------|-------|-------|-------|-------|-------|-------|-------|-------|-------| 
-------|-------|-------|-------|-------|-------|-------|-------|-------|-------| 


-------|-------|-------|-------|-------|-------|-------|-------|-------|-------| 
-------|-------|-------|-------|-------|-------|-------|-------|-------|-------| 
-------|-------|-------|-------|-------|-------|-------|-------|-------|-------| 
-------|-------|-------|-------|-------|-------|-------|-------|-------|-------| 
-------|-------|-------|-------|-------|-------|-------|-------|-------|-------| 
-------|-------|-------|-------|-------|-------|-------|-------|-------|-------| 


-------|-------|-------|-------|-------|-------|-------|-------|-------|-------| 
-------|-------|-------|-------|-------|-------|-------|-------|-------|-------| 
-------|-------|-------|-------|-------|-------|-------|-------|-------|-------| 
-------|-------|-------|-------|-------|-------|-------|-------|-------|-------| 
-------|-------|-------|-------|-------|-------|-------|-------|-------|-------| 
-------|-------|-------|-------|-------|-------|-------|-------|-------|-------| 


-------|--------------------10g-----| 
-------|--------------------10.12---| 
-------|--------------------10.12---| 
-------|----------------------------| 
-------|----------------------------| 
-------|----------------------------| 


--10-------------------------10>------------------------------------------------| 
--------------------------------------------------------------------------------| 
--12s---------13----------13s12>------------------------------------------------| 
-----------------------------------------12-------------------------------------| 
--------------------------------------------------------------------------------| 
--------------------------------------------------------------------------------| 


-----------------------|-------|-------|--------------------10.10---| 
-----------------------|-------|-------|--------------------10.10---| 
-----------------------|-------|-------|----------------------------| 
-----------------------|-------|-------|----------------------------| 
-----------------------|-------|-------|----------------------------| 
-----------------------|-------|-------|----------------------------| 


--10----------------------10L10>------------------------------------------------| 
--------------------------------------------------------------------------------| 
--12s---------13----------13s12>------------------------------------------------| 
-----------------------------------------12-------------------------------------| 
--------------------------------------------------------------------------------| 
--------------------------------------------------------------------------------| 


-----------------------|-------|-------|-------|-------|-------|-------|-------|| 
-----------------------|-------|-------|-------|-------|-------|-------|-------|| 
-----------------------|-------|-------|-------|-------|-------|-------|-------|| 
-----------------------|-------|-------|-------|-------|-------|-------|-------|| 
-----------------------|-------|-------|-------|-------|-------|-------|-------|| 
-----------------------|-------|-------|-------|-------|-------|-------|-------|| 

roll up this ad to continue

share this page

See Also: