E-Chords
Steel Panther

Just Like Tiger Woods(Tabs)

Steel Panther

roll up this ad to continue

Just 


Intro - 
e|--------------------------------------------------------------------| 
B|--9-8---9-8---9-8---9-8---9-8-11-8---repeat-------------------------| 
G|------9-----9-----9-----9-------------------------------------------| 
D|--------------------------------------------------------------------| 
A|--------------------------------------------------------------------| 
E|--------------------------------------------------------------------| 

E|--------------------------------------------------------------------| 
B|-----19-17-16-17-16-------------------------------------------------| 
G|--------------------16----------------------------11----------------| 
D|-------------------------13-14s16-14-13-11-9------11----------------| 
A|---------------------------------------------9-11-9-----------------| 
E|--------------------------------------------------------------------| 


verse - 
e|--------------------------------------------------------------------| 
B|--------------------------------------------------------------------| 
G|-----4---4---3---3---3\1-----4---4----6---6--6p4----repeat 3x-------| 
D|-----2---2---4---4---4\2-----4---4----4---4--4-4--------------------| 
A|--------------------------------------------------------------------| 
E|--00---0---00--0---0------44---4---44---4---------------------------| 

E|--------------------------------------------------------------------| 
B|--------------------------------------------------------------------| 
G|-----4-4--3-3-3h4-6-------------------------------------------------| 
D|-----4-4--4-4-4-4-4-----6p4---4-------------------------------------| 
A|----------------------------7---7-4---------------------------------| 
E|--44----4---------------------------7-------------------------------| 


chorus - 
e|--------------------------------------------------------------------| 
B|--------------------------------------------------------------------| 
G|--4--2----4-2--4----------------------------------------------------| 
D|--4--2-2--4-2--4-2--6p4---4-----------------------------------------| 
A|--2--0-2--2-0--2-2------7---7-4-------------------------------------| 
E|-------0---------0--------------7-----------------------------------| 

 
share this page

See Also: