E-Chords
Steel Panther

If You Really Really Love Me (solo)(Tabs)

Steel Panther

roll up this ad to continue


Eb|--19b21r19--17--------------------------------------------------------------|--| 
Bb|----------------20--19--17------17------------------------------------------|--| 
Gb|----------------------------19------19------19------------------------------|--| 
Db|----------------------------------------17------17--16--14------14----------|--| 
Ab|------------------------------------------------------------17------16------|--| 
Eb|------------------------------------------------------------------------17--|--| 

Eb|---------------------------------------------------------14--17--19b21t22--19b21t21--19*--|--| 
Bb|-------------------------------------------------14--17-----------------------------------|--| 
Gb|-----------------------------------------14--16-------------------------------------------|--| 
Db|---------------------------------14--16---------------------------------------------------|--| 
Ab|--15------14b15--14------14--16-----------------------------------------------------------|--| 
Eb|------17-------------17-------------------------------------------------------------------|--| 
share this page

See Also: