E-Chords
Steel Panther

17 Girls In A Row (intro)(Tabs)

Steel Panther

roll up this ad to continue

e|---------------------------------------------------------------------------| 
B|---------------------------------------------------------------------------| 
G|---------------------------------------------------------------------------| 
D|--------------------0h3--0h5--0h3-------------------------0h3--0h5---------| 
A|----------0h3--0h5-----------------0h3----------0h3--0h5------------3p0----| 
D|-\0----0--------------------------------0h3--0---------------------------3~| 
                                                                         (ph) 


e|---------------------------------------------------------------------------| 
B|----3--2----3--3----3--3----3~---------------------------------------------| 
G|----2--2----0--0----0--0----0~---------------------------------------------| 
D|----0--0----0--0----0--0----0~---------------------------------------------| 
A|----0--0----3--3----2--2----3~---------------------------------------------| 
D|----0--0-------------------------------------------------------------------| 
share this page

See Also: