E-Chords
Static Dread

Revenge(Tabs)

Static Dread

roll up this ad to continue

Intro 
D|-4-4-4-4-4-4-4-4-3-3-3-3-3-3-3-3-------------------------------------------- 
A|-2-2-2-2-2-2-2-2-2-2-2-2-2-2-2-2-------------------------------------------- 
F|---------------------------------------------------------------------------- 
C|---------------------------------------------------------------------------| 
G|---------------------------------------------------------------------------| 
C|---------------------------------------------------------------------------| 

Verse 
D|---------------------------------------------------------------------------| 
A|---------------------------------------------------------------------------| 
F|-2------5------7------3----------------------------------------------------| 
C|-2------5------7------3----------------------------------------------------| 
G|-0(8Xs)-3(8Xs)-5(8Xs)-1(8Xs)-----------------------------------------------| 
C|---------------------------------------------------------------------------| 

D|---------------------------------------------------------------------------| 
A|---------------------------------------------------------------------------| 
F|-2------7------5------3----------------------------------------------------| 
C|-2------7------5------3----------------------------------------------------| 
G|-0(8Xs)-5(8Xs)-3(8Xs)-1(8Xs)-----------------------------------------------| 
C|---------------------------------------------------------------------------| 

Bridge 
D|---------------------------------------------------------------------------| 
A|---------------------------------------------------------------------------| 
F|---------------------------------------------------------------------------| 
C|-4-4-4-4----4-4-4-4--------------------------------------------------------| 
G|-4-4-4-4----4-4-4-4--------------------------------------------------------| 
C|-4-4-4-4----4-4-4-4--------------------------------------------------------| 

Verse 
D|---------------------------------------------------------------------------| 
A|---------------------------------------------------------------------------| 
F|-2------5------7------3----------------------------------------------------| 
C|-2------5------7------3----------------------------------------------------| 
G|-0(8Xs)-3(8Xs)-5(8Xs)-1(8Xs)-----------------------------------------------| 
C|---------------------------------------------------------------------------| 

D|---------------------------------------------------------------------------| 
A|---------------------------------------------------------------------------| 
F|-2------7------5------3----------------------------------------------------| 
C|-2------7------5------3----------------------------------------------------| 
G|-0(8Xs)-5(8Xs)-3(8Xs)-1(8Xs)-----------------------------------------------| 
C|---------------------------------------------------------------------------| 
share this page

See Also: