E-Chords
Stars In Stereo

Leave Your Mark(Tabs)

Stars In Stereo

roll up this ad to continue

Key: D
                         



(nothing) 

Pre-Chorus 

Electric 2 
E|---| 
B|---| 
G|---| 
D|-1-| 
A|-1-| 
D|-1-| 

Chorus 

Electric 1+2 
E|------------------------------------------------------------------------| 
B|------------------------------------------------------------------------| 
G|------------------------7-7\5---------------------5--------------5------| 
D|-5-5--0--5-5--0--5-5----x-x-x--x3----1-1-1-1-1-1--x--1-1-1-1-1-1-x----5-| 
A|-5-5--0--5-5--0--5-5----5-5\3--------1-1-1-1-1-1--3--1-1-1-1-1-1-3----5-| 
D|-5-5--0--5-5--0--5-5-----------------1-1-1-1-1-1-----1-1-1-1-1-1------5-| 

VERSE 

Electric 2 
(chug this for entire verse) 
E|---| 
B|---| 
G|---| 
D|-5-| 
A|-5-| 
D|-5-| 

SOLO 

Electric 1 
E|-----------------------10-----------------------15-----------------------10-----------------| 
B|-8h9r8----8h9r8----8h9-----8h9r8----8h9h8---8h9-----8h9r8----8h9r8---8h9-----8888888888--66-| 
G|-------7--------7----------------7--------7---------------7--------7------------------------| 
D|--------------------------------------------------------------------------------------------| 
A|--------------------------------------------------------------------------------------------| 
D|--------------------------------------------------------------------------------------------| 


BRIDGE 

Electric 1 
E|-----------------------10-----------------------15-----------------------10-----------------| 
B|-8h9r8----8h9r8----8h9-----8h9r8----8h9h8---8h9-----8h9r8----8h9r8---8h9-----8888888888--66-| 
G|-------7--------7----------------7--------7---------------7--------7------------------------| 
D|--------------------------------------------------------------------------------------------| 
A|--------------------------------------------------------------------------------------------| 
D|--------------------------------------------------------------------------------------------| 


Electric 2 
E|---| 
B|---| 
G|---| 
D|-5-| 
A|-5-| 
D|-5-| 

Chorus 
share this page

See Also: