E-Chords
Star Fucking Hipsters

Death Is Never Out Of Fashion(Tabs)

Star Fucking Hipsters

roll up this ad to continue

Intro
 
e||--------------------------| 
B||--------------------------| 
G||--------------------------| 
D||---5-5-6-5-5-6-5-5-6-5----| 
A||---3-3-4-3-3-4-3-3-4-3----| 
E||---3-3-4-3-3-4-3-3-4-3----| 

  Verse/Ska Chords 

e||---4---3---4---6--------| 
B||---4---4---6---8--------| 
G||---5---3---6---8--------| 
D||------------------------| 
A||------------------------| 
E||------------------------| 

Chorus
 
e||---------------------| 
B||---------------------| 
G||------------6--------| 
D||--6--6--3---6--------| 
A||--6--6--3---4--------| 
E||--4--3--1------------| 

Ending 

e||---------------------| 
B||---------------------| 
G||---------------------| 
D||--5-5-6-5------------| 
A||--3-3-4-3------------| 
E||--3-3-4-3------------| 
        
share this page

See Also: