E-Chords
Stahlmann

Teufel(Tabs)

Stahlmann

roll up this ad to continue

Key: C
Intro 

D|-----------------------| 
A|-----------------------| 
F|------3-----------5----| 
C|0-----3(x8)-3-----5(x8)| 
G|0(x8)-1-----3(x8)-3----| 
C|0-----------3----------| 

Pre-verse 


Pre-Chorus 

D|-----------------------| 
A|-----------------------| 
F|3-----2-----3-----5----| 
C|3(x8)-2(x8)-3(x8)-5(x8)| 
G|1-----0-----1-----3----| 
C|-----------------------| 
share this page

See Also: