E-Chords
St. Vincent

Savior(Tabs)

St. Vincent

Intro 
e|--------------------------------------|----------------------------------------| 
B|------------15------------------------|--------------15------------------------| 
G|-----14--16------14-13-14---14-16-13--|------14--16------16-14-13-14-14-16-16--| 
D|--16----------------------------------|---16-----------------------------------| 
A|--------------------------------------|----------------------------------------| 
E|--------------------------------------|----------------------------------------| 

Verse 
e|--------------------------------------|----------------------------------------| 
B|------------15------------------------|--------------15------------------------| 
G|-----14--16------14-13-14---14-16-13--|------14--16------16-14-13-14-14-16-16--| 
D|--16----------------------------------|---16-----------------------------------|  x2 
A|--------------------------------------|----------------------------------------| 
E|--------------------------------------|----------------------------------------| 

Chorus 
e|-------------------------------------| 
B|-------------------------------------| 
G|-------------------------------------| 
D|--11-9-11--9-11-11/12-11-9~----------|  x4 
A|-------------------------------------| 
E|-------------------------------------| 

Verse 
e|--------------------------------------|----------------------------------------| 
B|------------15------------------------|--------------15------------------------| 
G|-----14--16------14-13-14---14-16-13--|------14--16------16-14-13-14-14-16-16--| 
D|--16----------------------------------|---16-----------------------------------|  x2 
A|--------------------------------------|----------------------------------------| 
E|--------------------------------------|----------------------------------------| 

Chorus 
e|-------------------------------------| 
B|-------------------------------------| 
G|-------------------------------------| 
D|--11-9-11--9-11-11/12-11-9~----------|  x4 
A|-------------------------------------| 
E|-------------------------------------| 

Break} (then you say...) (not totally sure here) 
e|----------------------------------------| 
B|----------------------------------------| 
G|-----11-11--9--9--8--8------------------| 
D|-----9--9---7--7--6--6------------------| 
A|----------------------------------------| 
E|----------------------------------------| x2 

Verse 
e|--------------------------------------|----------------------------------------| 
B|------------15------------------------|--------------15------------------------| 
G|-----14--16------14-13-14---14-16-13--|------14--16------16-14-13-14-14-16-16--| 
D|--16----------------------------------|---16-----------------------------------|   
A|--------------------------------------|----------------------------------------| 
E|--------------------------------------|----------------------------------------| 

Chorus 
e|-------------------------------------| 
B|-------------------------------------| 
G|-------------------------------------| 
D|--11-9-11--9-11-11/12-11-9~----------|  x4 
A|-------------------------------------| 
E|-------------------------------------| 

Break} 
e|----------------------------------------| 
B|----------------------------------------| 
G|-----11-11--9--9--8--8------------------| 
D|-----9--9---7--7--6--6------------------| 
A|----------------------------------------| 
E|----------------------------------------| until end. 

*********************************** 
| /   Slide-up 
| ~   Vibrato 
*********************************** 

roll up this ad to continue

share this page

See Also: