E-Chords
Spy vs Spy

Mission Man(Tabs)

Spy vs Spy

roll up this ad to continue

Key: Am
Fade in Intro (Play once) 
 
 Am  
e-----------------------------------0----- 
B-1-1-1-1--------------------------0------ 
G-2-2-2-2-------------2-----------0------- 
D-2-2-2-2---------2--------------2-------- 
A---------------3---3--------2--2--------- 
E--------------------------0-------------- 
 
0:13 1st Verse (repeat x 4) 
e-----------------------------------0----- 
B-1-1-1-1-0------------------------0------ 
G-2-2-2-----2---------2-----------0------- 
D-2-2-2-------2---2--------------2-------- 
A---------------3---3--------2--2--------- 
E--------------------------0-------------- 
 
1st Verse 
Yesterday I met a man 
Who ruled the world in his sleep 
Park bench for a pillow 
A castle in his dream 
All of his belongings are 
In a brown bag tied with string 
People pass and step around 
The man without a mission 
 
1:09 (repeat x 2) 
e-------------------------------- 
B--1-0--------------------------- 
G------2---------2---------------- 
D--------2---2-------------------- 
A----------3---3------------------ 
E-------------------------------- 
 
1:16  
e-------------------------------- 
B--1-0--------------------------- 
G------2------------------------- 
D--------2----------------------- 
A-------------------------------- 
E-------------------------------- 
 
1:18 2nd Verse (repeat x 3) 
e-----------------------------------0----- 
B-1-1-1-1-0------------------------0------ 
G-2-2-2-----2---------2-----------0------- 
D-2-2-2-------2---2--------------2-------- 
A---------------3---3--------2--2--------- 
E--------------------------0-------------- 
 
2nd Verse 
See him find a lifelong friend 
A pigeon in the park 
Winter cold cuts to the bone 
A shiver in the dark 
People pass and step around 
The man without a mission 
 
1:56 Pre Chorus (repeat x 5) 
e--------------------------- 
B--------------------------- 
G-----------0--------------- 
D---2---3--------3-2-------- 
A-0---0---0---0------3------ 
E--------------------------- 
 
2:13 Chorus (repeat x 4) 
    C        Em      Am 
e-------------------------------------------------------------- 
B---11111111--------------------------------------------------- 
G---00000000--------------------0--------------------0--------- 
D---22222222-22222222---2---3-------3-2------2---3-------3-2--- 
A---33333333-22222222-0---0---0---0-----3--0---0---0---0-----3- 
E---33333333--------------------------------------------------- 
 
(Chorus) 
He's a mission man 
He's a man without, man without a mission 
He's a mission man 
He's a man without, lost without ambition 
He's a mission man 
He's a man without, lost without a vision 
Yeaah, Yeahah 
 
3:04 3rd Verse  
e---------------------0----- 
B--------------------0------ 
G-------2-----------0------- 
D---2--------------2-------- 
A-3---3--------2--2--------- 
E------------0-------------- 
 
3:11 
e-----------------------------------0----- 
B-1-1-1-1-0------------------------0------ 
G-2-2-2-----2---------2-----------0------- 
D-2-2-2-------2---2--------------2-------- 
A---------------3---3--------2--2--------- 
E--------------------------0-------------- 
 
3:24 
e----------------- 
B-1-1-1-1-0------- 
G-2-2-2-----2----- 
D-2-2-2-------2--- 
A---------------3- 
E----------------- 
 
3rd Verse 
Maybe guided by a vision 
The message in a dream 
So thank you Merle, for caring for 
The man without a mission 
 
3:29 Outro (repeat over and mix with Harmonics) 
e-------------------------------- 
B--1-0--------------------------- 
G------2------------------------- 
D--------2----------------------- 
A----------3--------------------- 
E-------------------------------- 
 
 
share this page

See Also: