E-Chords
Spy vs Spy

A.O.MOD(Tabs)

Spy vs Spy

roll up this ad to continue

e--0-----------------0----------------------- 
B----0--3--------------0-3--------------------- 
G--------2-0----------------2-0---------------- 
D-----------2--2-2---------------------------- 
A-----------2--2-2---------------------------- 
E-----------0--0-0---------------------------- 
 
e---------------------------------3--3------- 
B---------------------------------2--2------- 
G---------------4--4--------------3--3--0h2-0h2------ 
D--2--2-----2---4--4--------------0--0------------ 
A--2--2-----2---2--2--2h0--3h0------------------------ 
E--0--0--3--0---------------------------------- 
 
e------------------------------------------ 
B------------------------------------------ 
G--2-2--------------------------------------- 
D--2-2--------------------------------------- 
A--0-0--0h2-0h2------------------------------------ 
E------------------------------------------ 
 
segunda parte 
 
e------------------------------------------ 
B------------------------------------------ 
G--2h4-4-4------4--4------------------------------ 
D----------2-2--------2-2----4-4-4-5-7--------------- 
A------------------------------------------ 
E------------------------------------------ 
 
e------------------------------------------ 
B------------------------------------------ 
G----------4-7-7------------------------------ 
D-7-7-7-7-------------------------------------- 
A------------------------------------------ 
E------------------------------------------ 
 
e---3--------------------------------------- 
B---2--------------------------------------- 
G---3---2h0------------------------------------ 
D-2-0---------0h2------------------------------ 
A-2----------------------------------------- 
E-0----------------------------------------- 
 
repete inicio  (A.O A.O) 
 
 
e----5-7----5-7--7-----5-7----5-5-5-5-5-7/0--- 
B--5------5--------5-------------------------- 
G--------------------------------------------- 
D--------------------------------------------- 
A--------------------------------------------- 
E------------------------------------------ 
 
cool 
 
e----------------------------7-------------- 
B---8-7------------------7-8---8-7--------------- 
G--------7---------7-9------------------------ 
D----------7-7H9------------------------------- 
A------------------------------------------ 
E------------------------------------------ 
 
 
e---7---7---7----7---10/-------------------------- 
B-----8---8---8----8--------------------------- 
G------------------------------------------ 
D------------------------------------------ 
A------------------------------------------ 
E------------------------------------------ 
 
HARMONICAL 
 
e------------------------------------------ 
B------------------------------------------ 
G------12----7-----------7---7------------------ 
D---12-----------------7---7---7---------------- 
A----------------5----------------7---------- 
E------------------------------------------ 
 
e------------------------------------------ 
B------------------------------------------ 
G------12------7-------------7---7-------------- 
D---12------------7--------7------7------------- 
A------------------------7----------7-------- 
E------------------------------------------ 
 
e------------------------------------------ 
B------------------------------------------ 
G----12------------------------7-------------- 
D-12----------17-----5-----------7--------------- 
A-------------------------5--------7--------- 
E------------------------------------------ 
 
e------------------------------------------ 
B------------------------------------------ 
G----12-----7----------7---7-------------------- 
D-12-----------------7-------7----------------- 
A---------------5--------------7------------- 
E------------------------------------------ 
 
e----7-7----5--5--5--5--------------------------- 
B----8-8-----7-7---7-7-----0-0-0---3---3-3------------- 
G--------------------------4-4-4---4---4-4------ 
D------------------------------------------ 
A------------------------------------------ 
E------------------------------------------ 
 
e---5-5--5--3--3-3-3------------------------------ 
B---7-7--7---5-5-5-5--0-0--3-3------------------------ 
G---------------------4-4--4-4----------------- 
D------------------------------------------ 
A------------------------------------------ 
E------------------------------------------ 
 
REPETE AO AO PARTE 1 LIGADA NO AO AO 
 
FINAL 
e--------------------------7--------------------- 
B----8-7---------------7-8---8--7---8-7------------ 
G---------7--------7-9------------------7--------- 
D-----------7-7H9-------------------------7-7H9---- 
A------------------------------------------------- 
E-------------------------------------------------- 
 
e------------------------------------------ 
B---------8--7------------------------------- 
G---7--9------------------------------------- 
D---------------7bh--h5--------------5-7--------- 
A------------------------7-5------5-7----------- 
E----------------------------7-5-7------------ 
 
e------------------------------------------ 
B------------------------------------------ 
G------------------------------------------ 
D---7bh-h5-----------5-7-7bh-h5------------------------ 
A------------7-5--7-------------7-------------- 
E------------------------------------------ 
 
e------------------------------------------ 
B------------------------------------------ 
G------------------------------------------ 
D---7bh-h5-------------------------------------- 
A-----------7-5------------------------------ 
E----------------7-5-7------------------------- 
 
 
 
e------------------------------------------ 
B------------------------------------------ 
G------------------------------------------ 
D---7bh-h5-------------------------------------- 
A-----------7-5-----------5--7-7-7--------------- 
E----------------7-5-7------------ 
share this page

See Also: