E-Chords
Springtime Carnivore

Keep Confessing(Tabs)

Springtime Carnivore

roll up this ad to continue

VERSE 

e|-8----3----7---------------------------------------------------------------| 
B|-8----3----7---------------------------------------------------------------| 
G|-9----4----8---------------------------------------------------------------| 
D|-10---5----9---------------------------------------------------------------| 
A|-10---5----9---------------------------------------------------------------| 
E|-8----3----7---------------------------------------------------------------| 

Chorus 

e|-3---8----7----5-----------------------------------------------------------| 
B|-3---8----7----5-----------------------------------------------------------| 
G|-4---9----7----5-----------------------------------------------------------| 
D|-5---10---9----7-----------------------------------------------------------| 
A|-5---10---9----7-----------------------------------------------------------| 
E|-3---8----7----5-----------------------------------------------------------| 

BRIDGE 

e|-7---5---7---3-------------------------------------------------------------| 
B|-7---5---7---3-------------------------------------------------------------| 
G|-8---6---8---4-------------------------------------------------------------| 
D|-9---7---9---5-------------------------------------------------------------| 
A|-9---7---9---5-------------------------------------------------------------| 
E|-7---5---7---3-------------------------------------------------------------| 
share this page

See Also: