E-Chords
Sonny Rollins

Way Out West(Tabs)

Sonny Rollins

Key: F
  F        Dm7     Gm7      C7      F                C7 
e|----------------|----------------|----------------|----------------| 
B|6---8---6-------|----------------|----------------|----------------| 
G|--5---5---5-----|6-----7---------|----------------|----------------| 
D|------------7---|----------8-5---|----------------|--------5---7---| 
A|--------------8-|--------------7-|8---------------|----8-----------| 
E|----------------|----------------|----------------|--8---8---8---8-| 

  F                Am7      D7      G7#5      C7     Em7b5    A7 
e|----------------|----------------|----------------|----------------| 
B|----------------|----------------|--5-------------|--------5-----5-| 
G|----------------|----5---6---7---|8---------------|----6-7-----7---| 
D|5-----7---------|--5---5---6---7-|----------------|--7-------7-----| 
A|----------------|----------------|----------------|----------------| 
E|----------------|----------------|----------------|----------------| 

  Dm               Bb       C7      F                         C7 
e|----------------|----------------|----------------|----------------| 
B|6---------------|----------------|----------------|----------------| 
G|----------------|----5---7-------|----------------|----------------| 
D|----------------|--7---7---8-5---|----------------|------7-----7-5-| 
A|----------------|--------------7-|8---------------|----8-----8-----| 
E|----------------|----------------|----------------|--8-----9-------| 
   
  F                Bm7      E7      Amaj7     D7#11  Gm7     C7   A7/C# 
e|----------------|----------------|----------------|----------------| 
B|----------------|------------5---|5---------------|--------5-----5-| 
G|----------------|--4-------4---7-|----------------|----6-7-----7---| 
D|7---------------|----4-7-6-------|----------------|--7-------7-----| 
A|----------------|----------------|----------------|----------------| 
E|----------------|----------------|----------------|----------------| 

  Dm7      Dm7/C   Bbmaj7    C7     F                Gm7     C7 
e|----------------|----------------|----------------|----------------| 
B|6---------------|----------------|----------------|----------------| 
G|----------------|----5---7-------|----------------|----------------| 
D|----------------|--7---7---8-5---|----------------|----------------| 
A|----------------|--------------7-|8---------------|----------------| 
E|----------------|----------------|----------------|----------------| 

roll up this ad to continue

share this page

See Also: