E-Chords
Sonny Rollins

Doxy(Tabs)

Sonny Rollins

Key: Bb

        Bb7      Ab7      G7                C7       F7        Bb      F7(#5) 
e|----|-----------------|-----------------|------------------|---------------| 
B|----|-----------------|-----------------|---------triplet--|---------------| 
G|----|---7-------------|-------6---------|-------6-(565)----|---------------| 
D|----|-8---8-5-8-------|-8-5-8-----5-----|---5-8--------5-8-|---------------| 
A|--8-|---------------8-|---------------8-|-7----------------|-------------8-| 
E|----|-----------------|-----------------|------------------|---------------| 


   Bb7     Ab7     G7                C7                 F7 
e|---------------|-----------------|------------------|----------------------| 
B|---------------|-----------------|---------triplet--|----------------------| 
G|---7-----------|-------6---------|-------6-(565)----|----------------------| 
D|-8---8-5-8-----|-8-5-8-----5-----|---5-8--------5-7-|----------------------| 
A|-------------8-|---------------8-|-7----------------|----------------------| 
E|---------------|-----------------|------------------|----------------------| 


  Bb7                                Eb7               Edim7 
e|-----------------|----------------|-----------------|----------------------| 
B|-8-----6---------|----------------|-----------------|----------------------| 
G|-------------6---|----------6-----|-6---6-6-----5---|----------------------| 
D|-----------------|------5-------5-|---------5-------|----------------------| 
A|-----------------|----------------|-----------------|--------------------8-| 
E|-----------------|----------------|-----------------|----------------------| 


  Bb7      Ab7       G7                C7        F7       Bb 
e|-----------------|-----------------|------------------|--------------------| 
B|-----------------|-----------------|---------triplet--|--------------------| 
G|---7-------------|-------6---------|-------6-(565)----|--------------------| 
D|-8---8-5-8-------|-8-5-8-----5-----|---5-8--------5-8-|--------------------| 
A|---------------8-|---------------8-|-7----------------|--------------------| 
E|-----------------|-----------------|------------------|--------------------| 

roll up this ad to continue

share this page

See Also: