E-Chords
Songs Ohia

Blue Chicago Moon(Tabs)

Songs Ohia

Key: C
Intro riff 
                               
e|------------------------------------------------------------3-----3-3-3----| 
B|--5-8------------5-8---------5-8---5--5-3------6-6-5--------1-----1-1-1----| 
G|------7---(9)--------7-----------7-5------5-5--7-----7-5----2-----2-2-2----| 
D|7--------------7-----------7-------5-----------7------------2-----2-2-2----| 
A|--------7--------------7-----------3-----------5----------0----------------| 
E|--------5--------------5---------------------------------------------------| 

                                                               
                                    * * * 
e|-------------------------3-3-3-------------------------------3-3-----------| 
B|-5-5-3------6-6-6-5------1-1-1--5--------5h6-6-5b--------1-1-1-1-----------| 
G|-5-----5-5--7-------5----2-2-2--5-5-5-5----------5-----------2-2-----------| 
D|-5----------7------------2-2-2--5----------------------------2-2-----------| 
A|-3----------5----------0--------3-------------------0----------------------| 
E|---------------------------------------------------------------------------| 
    
e|-----------------3---------------------------------------------------------| 
B|-5--5-----6-6-5--1---------------------------------------------------------| 
G|-5--5------------2---------------------------------------------------------| 
D|-----------------2---------------------------------------------------------| 
A|------3/5------------------------------------------------------------------| 
E|---------------------------------------------------------------------------| 

Verse - 'Out of the ruins...' x8 

There are slight variations in how Molina plays the verse, listen to the song  

e|--------------3------------------------------------------------------------| 
B|-5---6---1------3----------------------------------------------------------| 
G|-5---7---2-----------------------------------------------------------------| 
D|-5---7---2-----------------------------------------------------------------| 
A|---------------------------------------------------------------------------| 
E|---------------------------------------------------------------------------| 

Chorus is the exact same as the verse. In between Chorus and verses He plays the intro. Hope this was helpful 

roll up this ad to continue

share this page

See Also: