E-Chords
Son Lux

Easy(Tabs)

Son Lux

Intro 0:00 
e|---------17----------------------|---------17----------------------| 
B|-18--18--18--18--18--18--18--18--|-18--18--18--18--18--18--18--18--| 
G|---------------------------------|---------------------------------| 
D|---------------------------------|---------------------------------| 
A|---------------------------------|---------------------------------| 
E|---------------------------------|---------------------------------| 

e|---------17----------------------|-17--17--17--17--17--15----------| 
B|-18--18--18--18--18--18--18--18--|-------------------------18--15--| 
G|---------------------------------|---------------------------------| 
D|---------------------------------|---------------------------------| 
A|---------------------------------|---------------------------------| 
E|---------------------------------|---------------------------------| 

Bass notes 
e|---------------------------------|---------------------------------| 
B|---------------------------------|---------------------------------| 
G|---------------------------------|---------------------------------| 
D|-15-(15)-------------------------|-15-(15)-------------------------| 
A|---------------------------------|---------------------------------| 
E|---------------------------------|---------------------------------| 

e|---------------------------------|---------------------------------| 
B|---------------------------------|---------------------------------| 
G|---------------------------------|-----------------10-(10)---------| 
D|-15-(15)-----------------17-(17)-|-15-(15)---------12-(12)---------| 
A|---------------------------------|---------------------------------| 
E|---------------------------------|---------------------------------| 


verse 1 0:29 
'..ea sy.............................ea sy...........................' 
e|---------17----------------------|---------17----------------------| 
B|-18--18--18--18--18--18--18--18--|-18--18--18--18--18--18--18--18--| 
G|---------------------------------|---------------------------------| 
D|---------------------------------|---------------------------------| 
A|---------------------------------|---------------------------------| 
E|---------------------------------|---------------------------------| 

'.....pull out your........make the..........being alone.............' 
e|---------17------18--17--15------|-18--17--15------17--15----------| 
B|-18--18--18--18--------------18--|-------------18--18------18--15--| 
G|---------------------------------|---------------------------------| 
D|---------------------------------|---------------------------------| 
A|---------------------------------|---------------------------------| 
E|---------------------------------|---------------------------------| 

'Easy. Easy. 
Pull out your heart to make the being alone 
easy. Easy. 
Pull out your heart to make the being alone' 


Bridge 0:56 
'easy...' 
e|---------------------------------| 
B|---------------------------------| 
G|-----------10/12/14---\12\10\7---| 
D|---------------------------------| 
A|------------8/10/12---\10\-8\5---| 
E|---------------------------------| 


Sax Riff 0:59 (played with intro riff twice) 
'easy...' 
e|---------------------------------|---------------------------------| 
B|---------------------------------|---------------------------------| 
G|---------------------------------|---------------------------------| 
D|---------------------------------|---------------------------------| 
A|-------------------5-8-------8---|-------------------5-8-------8---| 
E|---------------------------8-----|---------------------------8-----| 

e|---------------------------------|---------------------------------| 
B|---------------------------------|---------------------------------| 
G|---------------------------------|---------------------------------| 
D|---------------------------------|---------------------------------| 
A|-------------------5-8-------8---|---------------------------------| 
E|---------------------------8-----|---------------------------------| 


verse 2 1:25 (same as verse 1) 

'Easy. Easy. 
You break the bridle to make losing control 
Easy. Easy. 
Crush what you're holding so you can say letting go is 
easy.' 


Bridge 1:52 


verse 3 1:55 (with Sax riff) 
'easy...' 
e|-17--17--17--17--17--15----------|-17--17--17--17--17--15----------| 
B|-------------------------18--15--|-------------------------18--15--|  
G|---------------------------------|---------------------------------| 
D|---------------------------------|---------------------------------| 
A|---------------------------------|---------------------------------| 
E|---------------------------------|---------------------------------| 

'....................................ohhhhhhhhh..oh..oh..oh..........' 
e|-17--17--17--17--18--17--15------|-18--17--15------17--15-(15)-(15)| 
B|-----------------------------18--|-------------18--18--------------| 
G|---------------------------------|---------------------------------| 
D|---------------------------------|---------------------------------| 
A|---------------------------------|---------------------------------| 
E|---------------------------------|---------------------------------| 


verse 4 2:08 (same as verse 1, with Sax) 

'Oh, easy. Easy. 
Burn all your things to make the fight to forget 
Easy. Oh, easy. 
Burn all your things to make the fight to forget 
easy.' 


Bridge 2:35 


Solo 2:38 
e|---------------------------------|--------------------17pbr15------| 
B|---------------------------------|---------------------------------| 
G|---------------------------------|---------------------------------| 
D|---------------------------------|---------------------------------| 
A|----------------------------8/10/|12-------------------------------| 
E|---------------------------------|---------------------------------|  

2:44 
e|---------------------------------|---------------------------------| 
B|----20pbr18---------15-----------|-----------------15--------------| 
G|-----------------14--------------|---------------------------------| 
D|---------------------------------|---------------------------------| 
A|---------------------------------|---------------------------------| 
E|---------------------------------|---------------------------------|  

2:50 
e|------------------------------15p|13-----------------------10------| 
B|-(15)----------------------------|----15-13\10--10---------10------| 
G|-(14)------------14--------------|---------------------------------| 
D|---------------------------------|---------------------------------| 
A|----------------------------12-12|10--10p8-------------------------| 
E|---------------------------------|---------------------------------|  

2:57 
e|-----------------10--------------|-----------------15--------------| 
B|-----------------10--------------|---------------------18--15--13--| 
G|---------------------------------|---------------------------------| 
D|---------------------------------|---------------------------------| 
A|---------------------------------|---------------------------------| 
E|---------------------------------|---------------------------------|  

3:04 
e|---------------------------------|------20-20----------------------| 
B|-15-(15)-13h15-------------------|18h20b22-(22)---r20\-18----------| 
G|---------------------------------|-------------------------19------| 
D|---------------------------------|---------------------------------| 
A|---------------------------------|---------------------------------| 
E|---------------------------------|---------------------------------|  

3:10 
e|-----------------------------------|--------------| 
B|-----------------------------------|--------------| 
G|19p17------------------------------|--------------| 
D|-----19p17-15--17/19-15/17--15-12--|-(12)---------| 
A|-----------------------------------|--------------| 
E|-----------------------------------|--------------|  


Verse 5 3:15 (same as verse 1, with Sax) 

'Easy. Easy. 
Pull out your heart to make the being alone 
easy. Easy. 
Pull out your heart to make the being alone 
easy.' 


Outro 3:43 
e|----------------------------------|----------------------------------| 
B|-18--18--18--18---18--18--18-17-18|-18--18--18-17-17-18--18--18-17-18| 
G|----------------------------------|----------------------------------| 
D|----------------------------------|----------------------------------| 
A|----------------------------------|----------------------------------| 
E|----------------------------------|----------------------------------| 

e|----------------------------------|-18--17--15----------15----------| 
B|-18--18--18-17-17-18--18--18-17-18|-------------18--18------18--15--| 
G|----------------------------------|---------------------------------| 
D|----------------------------------|---------------------------------| 
A|----------------------------------|------------------------------8--| 
E|----------------------------------|---------------------------------| 

Sax Out 3:55 (with pick up from end of outro) 
e|---------------------------------| 
B|---------------------------------| 
G|---------------------------------| 
D|---------------------------------| 
A|-12--12--12--12--12--12--12--12--| 
E|---------------------------------| 

roll up this ad to continue

share this page

See Also: