E-Chords
Something For Kate

White(Tabs)

Something For Kate

roll up this ad to continue

Key: Dsus2
I tabbed this file by hear from a solo acoustic dempsey did.  I didn't  
write out the strumming pattern, but if you have half a brain, you should  
be able to figure it out. :) 
 
 
 
 
INTRO/VERSE: 
------------ 
 
E|-4--|-4--|-4--|-4--| 
B|-12-|-12-|-12-|-12-| 
G|-4--|-4--|-4--|-4--| 
D|-13-|-13-|-13-|-13-| 
A|-11-|-4--|----|----| 
E|-4--|----|-11-|-4--| 
 
 
 
PRE-CHORUS: 
----------- 
 Dsus2    C 
E|-4----|-4--| 
B|-7----|-5--| 
G|-6----|-4--| 
D|-4----|-6--| 
A|-4----|-7--| 
E|------|----| 
 
 
 
CHORUS: 
------- 
 
E|-------------|-------------|-------------|-------------| 
B|-------------|-------------|-------------|-------------| 
G|---8-6p4---4-|---8-6p4---4-|---8-6p4---4-|---8-6p4---4-| 
D|---------8---|---------8---|---------8---|---------8---| 
A|-------------|-4-----------|-6-----------|-7-----------| 
E|-7-----------|-------------|-------------|-------------| 
 
 
 
--------------------------------------------- 
Transcribed By SANCCO ([email protected]) 
--------------------------------------------- 
 
share this page

See Also: