E-Chords
Something For Kate

The Astronaut(Tabs)

Something For Kate

roll up this ad to continue

Key: G#m
This song rocks, so here is the tab.  For the chorus just hit a couple 
of the bass notes and then strum the higher notes.  Have fun with this! 
 
 
 
INTRO/VERSE: 
------------ 
 
 
E|------------------------------------------------------------------| 
B|------------------------------------------------------------------| 
G|---------------------2-4--1--------------------------2-4/6-4------| 
D|------2-2h4--2-----2----------------4--------------2--------------| 
A|----2------------0----------------4---2h4--2--2--0----------------| 
E|--0-----------------------------2---------------------------------| 
 
 
 
 
CHORUS: 
------- 
 
 
E|--4-----------2-----------| 
B|--4-----------2-----------| 
G|--4-----------2-----------| 
D|--6-----------4-----------| 
A|--6-----------4-----------| 
E|--4-----------2-----------| 
  G#m         F#m 
 
 
 
 
--------------------------------------------- 
Transcribed By SANCCO ([email protected]) 
--------------------------------------------- 
 
 
share this page

See Also: