E-Chords
Something For Kate

Reverse Sountrack(Tabs)

Something For Kate

roll up this ad to continue

Key: D
Probably my favourite SFK song ever. After seeing SFK at the Forum, this is not the proper  
tab but is basically the same. They play it in dropped D. I've tabbed it by dropping my  
guitar down a whole step. It's easy to play it this way. I've only tabbed out the acoustic  
part. The lead line is extremely easy to work out. 
 
Guitar: 1 whole step down - (d-A-F-C-G-D) 
**Note**: Make sure you mute the A and the high E string for most of the song. And  
let your open D string be heard at all times. 
 
Verse: 
d-------x-------------x-------x-------x------------x--------- 
A-------3-------------5-------7-------10-----------3--------- 
F-------2-------------6-------7-------9------------2--------- 
C-------0-------------0-------0-------0------------0--------- 
G-------x-------------x-------x-------x------------x--------- 
D-------3-------------5-------7-------10-----------3--------- 
So you dance and you shuffle into the eye of the storm 
Your eyes are on fire as if you've never been here before 
and you say it's all nothing, but tell yourself quietly 
But I hear you from my house, breathing...differently 
 
 
d-----------x----x-----x------------------------------------- 
A-----------5----3-----3------------------------------------- 
F-----------6----2-----2------------------------------------- 
C-----------0----0-----0------------------------------------- 
G-----------x----x-----x------------------------------------- 
D-----------5----2-----3------------------------------------- 
And when it all falls down 
 
 
Chorus: 
d----x----x-----x-----x-------x-----x-------x---------------- 
A----7----10----3-----3-------5-----3-------3---------------- 
F----7----9-----2-----2-------6-----2-------2---------------- 
C----0----0-----0-----0-------0-----0-------0---------------- 
G----x----x-----x-----x-------x-----x-------x---------------- 
D----7----10----2-----3-------5-----2-------3---------------- 
You wont just stand there, looking at the ground 
And holding your breath, holding ours 
 
 
Verse 2: (Chords same as 1st verse except last phrase) 
So you drop 'til the water, changes from blue to green 
And you wait there until the wind knocks you out of your body 
you can stay there forever, counting the stars... 
(Repeat chords) 
trying to seperate yourself from how things are 
 
 
d--------x-------------x--------x--------------------------- 
A--------3-------------5--------3--------------------------- 
F--------2-------------6--------2--------------------------- 
C--------0-------------0--------0--------------------------- 
G--------x-------------x--------x--------------------------- 
D--------3-------------5--------3--------------------------- 
But you know you wont get very far 
 
 
d--------x----x-----x-------------------------------------- 
A--------5----3-----3-------------------------------------- 
F--------6----2-----2-------------------------------------- 
C--------0----0-----0-------------------------------------- 
G--------x----x-----x-------------------------------------- 
D--------5----2-----3-------------------------------------- 
Until it all falls down 
 
 
Chorus 
Ending: (Same as verse) 
 
Any questions or comments, email me 
 
share this page

See Also: