E-Chords
Something For Kate

Pinstripe(Tabs)

Something For Kate

roll up this ad to continue

By something for kate 
tabbed by stephen dubsky 
 
chords only written once, riffs written in order with no labels 
 
 
 
E---||------------------------------|-----------------------|----------- 
B---||------------5-------------2---|-----------2------\0---|----------- 
G---||*-------6-----------1/2---2---|-------2-----------1\--|----------- 
D---||*---4-----------0-------------|-----------------------|----------- 
A---||------------------------------|---0-----------2-------|----------- 
E---||------------------------------|-----------------------|----------- 
 
 
        harm.     sometimes 
E-------7----||---7------------------------||--------------------------- 
B-------7----||-------7--------------------||--------------------------- 
G-------7---*||-----------7---------------*||--------------------------- 
D---0-------*||---------------7-----------*||--------------------------- 
A------------||-------------------7--------||--------------------------- 
E------------||-----------------------7----||--------------------------- 
 
 
 
E---||----------------------------|-------------------------------|----- 
B---||----------------------------|-------------------------------|----- 
G---||*---------------------------|---2---2---2---2---2---2-------|----- 
D---||*---2---2---2---2---2---2---|---2---2---2---2---2---2-------|----- 
A---||----4---4---4---4---4---4---|---0---0---0---2---4-------4---|----- 
E---||----2---2---2---4---2---4---|-------------------------------|----- 
 
 
 
E---0---|---0----||---||----0---|---0----|--\|---5----||---------------- 
B---3---|---5----||---||----5---|---10---|---|--------||---------------- 
G---2---|---4---*||---||*---4---|---9----|---|\--2---*||---------------- 
D---0---|---6---*||---||*---6---|---11---|---|-------*||---------------- 
A-------|--------||---||--------|---0----|---|--------||---------------- 
E-------|--------||---||--------|--------|---|--------||---------------- 
 
 
 
E-------------------|-------------------|-------------------|----------- 
B-------------------|-------------------|-------------------|----------- 
G-------------------|-------------------|-------------------|----------- 
D---2---------------|---7---6---7---6---|---2---------------|----------- 
A---2h3h4---2-------|---7---7---7---7---|---2h3h4---2-------|----------- 
E-----------2h3h4---|---5---5---5---5---|-----------2h3h4---|----------- 
 
 
 
E--------------------||---||----0---0---------------|------------------- 
B--------------------||---||----0---0---------------|------------------- 
G---7---6---7---6---*||---||*---6---6---------------|------------------- 
D---7---7---7---7---*||---||*---6---6---2---2---2---|------------------- 
A---5---5---5---5----||---||----4---4---4---4---4---|------------------- 
E--------------------||---||------------2---2---2---|------------------- 
 
 
 
E-------------------|---0---0---------------|--------------------||----- 
B-------------------|---0---0---------------|--------------------||----- 
G-------------------|---6---6---------------|---7---6---7---6---*||----- 
D---7---6---7---6---|---6---6---2---2---2---|---7---7---7---7---*||----- 
A---7---7---7---7---|---4---4---4---4---4---|---5---5---5---5----||----- 
E---5---5---5---5---|-----------2---2---2---|--------------------||----- 
 
 
 
share this page

See Also: