E-Chords
Something For Kate

Higher Than You Think(Tabs)

Something For Kate

roll up this ad to continue

Key: C
(From the EP Answer to both your questions) 
Transcribed by Andrew Loch ([email protected]) 
 
Probably the easiest SFK song from their debut ep. This tab just gives you 
the basics so you'll have to listen to the cd for strumming and timing. 
 
Intro/Verse (Just a sliding open C shape chord which is played slightly 
different throughout the song; I've only included one progression): 
 
e-0-0--0--0--0-0-0--0- 
B-5-5--1--1--0-0-1--1- 
G-0-0--0--0--0-0-0--0- 
D-6-6--2--2--2-2-2--2- 
A-7-7--3--3--3-3-3--3- 
E--------------------- 
 
Sometimes at the end of the above prog. the bass comes in with: 
 
A-3-2-0--- 
E-------3- 
 
Bridge: 
 
e------------------ 
B-----5------------ 
G-3-4-----3-3-4-4~- 
D------------------ 
A------------------ 
E------------------ 
 
Chorus: 
 
                      Chorus end 
e------0-0--0-0-0-0-|----------- 
B-0-0--2-2--3-3-3-3-|-3-3---3-3- 
G-1-1--2-2--2-2-2-2-|---2-----2-  etc. 
D-2-2--2-2--0-0-0-0-|---0-----0- 
A-2-2--0-0----------|----------- 
E-0-0---------------|----------- 
 
Solo (Part 1 x4, Part 2, Part 1 x2, Part 2, Part 3): 
 
        Part 1             Part 2    Part 3 
e---------------------|-------------|----0- 
B-------------2---2-2-|-2-3-2h3p2-2-|-5--5- 
G-2-4-2-4-4-4---4-----|-------------|----0- 
D---------------------|-------------|------ 
A---------------------|-------------|------ 
E---------------------|-------------|------ 
 
The solo isn't perfect but it gives you a start. 
 
 
 
 
share this page

See Also: