E-Chords
Something For Kate

Clint(Tabs)

Something For Kate

roll up this ad to continue

By something for kate 
tabbed by stephen dubsky 
 
chords only written once, riffs written in order with no labels 
 
 
          intro 
E---||----0-----------0---0---0-------0-----------0-------0------------- 
B---||----2-------4-------2-------2---0---0---0-------2-------2--------- 
G---||*---0---4-----------2---------------1-----------2-----------4----- 
D---||*---2-------------------------------2-----------------------4----- 
A---||------------------------------------------------------------------ 
E---||------------------------------------------------------------------ 
 
 
                              verse 
E---0-----------0--------||--------------------------------||----------- 
B-------0-----------0----||--------------------------------||----------- 
G-----------3-----------*||---1---3---1---3---1---3---6---*||----------- 
D-----------4-----------*||---2---4---2---4---2---4---7---*||----------- 
A------------------------||---2---1---2---1---2---1---4----||----------- 
E------------------------||---0---2---0---2---0---2---5----||----------- 
 
 
    chorus 
E---0---------------------------0---0----||----------------------------- 
B---0---------------------------0---0----||----------------------------- 
G---6-------------------4---4---3---3---*||----------------------------- 
D---6---2---2---7---7---4---4---4---4---*||----------------------------- 
A---4---2---2---7---7---2---2---4---4----||----------------------------- 
E-------0---0---5---5-----------2---2----||----------------------------- 
 
 
 
share this page

See Also: