E-Chords
Solomon Burke

Don't Give Up On Me(Tabs)

Solomon Burke

roll up this ad to continue

Key: A#
Transcribed By: Stephen Shodimu 
Email: [email protected] 
 
  |    A#     |       A#      |    A#     |     A#   |    A# 
e------------------------------------------------------------------------- 
B-------3-----------3h4r3-----------3-----------3-----------3------------- 
G-----3---3-------3-------3-------3---3-------3---3-------3---3----------- 
D---3=------3---3-----------3---3-------3---3-------3---3-------3--------- 
A-1-----------1---------------1-----------1-----------1------------------- 
E------------------------------------------------------------------------- 
                                                 If i 
fall short... 
 
 |  F#5+/A      | F#5+/A      |    ?/G#   |   ?/G#    |  A#/G     |   A#/G 
e------------------------------------------------------------------------- 
B-------3-----------3-----------3-----------3------------3-----------3---- 
G-----3---3-------3---3-------5---5-------5---5--------1---1-------1---1-- 
D---4-------4---4-------4---4-------4---4-------4----3-------3---3-------3 
A------------------------------------------------------------------------- 
E-5-----------5-----------4-----------4------------3-----------3---------- 
      if i don't make the grade 
 
 |     C7sus2     |     C7   |     D#m     |    D#m   |     A# 
e------------------------------------------------------------------------- 
B-------3h5r3-----------5------------7-----------7------------3----------- 
G-----3-------3-------3---3--------8---8-------8---8--------3---3--------- 
D---5-----------5---5-------5----8-------8---8-------8----3-------3------- 
A-3---------------3------------6-----------6------------1----------------- 
E------------------------------------------------------------------------- 
  tomorrow...                                        
baby... 
 
  |   F#aug   |     G     |   G   |     C7       |    Cm7 
e-------2-----------3-----------3-------------------------3--------------- 
B-----3---3-------3---3------3-----------4h5------------4---4------------- 
G---3-------3---4-------4--------------3-----3--------3-------3----------- 
D-4-----------5------------5---------5---------5----5--------------------- 
A----------------------------------3--------------3----------------------- 
E------------------------------------------------------------------------- 
                              please don't... 
 
  |          |  Fmaj7  |*      |                   |   
       | 
e----2h4r2s0------------------6-------4------------------3----5s7--7------ 
B------------------1----------------------5h6r5--------------------------- 
G----------------2------5h7------4h5------------5---3h4------------------- 
D-4------------3---------------------------------------------------------- 
A------------------------------------------------------------------------- 
E------------------------------------------------------------------------- 
                   I know its...                       
          but my... 
 
  |     C7       |   C7     |             | 
e------------------------------------------------ 
B-------3h5r3-----------5-------4-s-6---5---4---- 
G-----3-------3-------3---3-----5-s-7---6---5---- 
D---5-----------5---5-------5-------------------- 
A-3---------------3------------------------------ 
E------------------------------------------------ 
                          haven't changed... 
 
(Repeat, except on 'Please Please' at 2:23 (see *), do 
this 
 
                   |                |            | 
e---8-s-10--8--6------6-s-8--6--4--------4----------5s7------------------- 
B----------------------------------------------2-------------------------- 
G---9-s-11--9--7------7-s-9--7--5----3h4---------------------------------- 
D------------------------------------------------------------------------- 
A------------------------------------------------------------------------- 
E------------------------------------------------------------------------- 
 
Colaboração: Leonardo Baumgratz ([email protected]) 
share this page

See Also: