E-Chords
Snoop Lion

Tired Of Running(Tabs)

Snoop Lion

roll up this ad to continue

e|---------------------------------------------------------------------------| 
B|---------------------------------------------------------------------------| 
G|-------------------------2-0-----------------------------------------------| 
D|---------1-1-1-1-4-4-4-4-----4-2-0-----------------------------------------| 
A|-2-2-2-2---------------------------2-0------------------------2-0----------| 
E|---------------------------------------3-2-0----------------------3-2-0----| 

e|---------------------------------------------------------------------------| 
B|---------------------------------------------------------------------------| 
G|---------------------------------------------------------------------------| 
D|---------------------------------------------------------------------------| 
A|--------------2-0-----2----------------------------------------------------| 
E|------------------3-2------------------------------------------------------| 

(Repeated through the entire song) 


Solo is pentatonic 7th fret 

Email me with any corrections. Thanks and please rate. 
share this page

See Also: