E-Chords
Smudge

Tenderfoot(Tabs)

Smudge

Key: G
Australia 
Improvments begged for 
-------------------------------------------------------------------------- 
Tenderfoot By Smudge (or a Lemonheads cover song) 
written by Tom Morgan (Smudge) and Adam Young (Daisygrinders) 
 
The thing that throws you most in this song is the bass part  
which plays G F# E pattern on the E string 
This can be incorporated into the guitar part nicely 
But that confuses the tab a bit, so listen at home... 
 
Intro 
e |------------|---------|---------|---------| 
b |7/-8--8--8--|-7-7-5-5-|-3-5-5-5-|-0-0-0-0-| 
g |0--0--0--0--|-0-0-0-0-|-0-0-0-0-|-0-0-0-0-| 
d |------------|---------|---------|---------| 
a |9/-10-10-10-|-9-9-7-7-|-5-7-7-7-|-2-2-2-2-| 
e |------------|---------|---------|---------| 
 
Verses 
e |--------|---------|---------|---------| 
b |0-0-0-0-|-7-5-5-5-|-3-5-5-5-|-0-0-0-0-| 
g |0-0-0-0-|-0-0-0-0-|-0-0-0-0-|-0-0-0-0-| 
d |--------|---------|---------|---------| 
a |2-2-2-2-|-9-7-7-7-|-5-7-7-7-|-2-2-2-2-| 
e |--------|---------|---------|---------| 
 
This is the spot where I jump off 
this is the place where I save face 
this is the part where I lose heart. 
 
In between bit 
 
e |------------|             |-------------| 
b |7/-8--8--8--|Four times   |-12-12-12-12-| hold this  
g |0--0--0--0--|     then... |-0--0--0--0--|  for ages 
d |------------|             |-------------| 
a |9/-10-10-10-|             |-14-14-14-14-| 
e |------------|             |-------------| 
 
 
Other bit 
these sparse versions of the chords might work better 
 
  Em      G       C       A 
EADGBe  EADGBe  EADGBe  EADGBe 
--X--X  --X--X  --X--X  ---X-X 
||||||  ||||||  ||||1|  |||||| 
|1||||  |1||||  ||||||  ||1|2| 
||||||  2|||||  |3||||  |||||| 
 
 
Em                G 
Over the pain and I'm past the bleedin'  
 
C                       A 
its not the tracks, its where they're leading. 
 
Verses 
e |--------|---------|---------|---------| 
b |0-0-0-0-|-7-5-5-5-|-3-5-5-5-|-0-0-0-0-| 
g |0-0-0-0-|-0-0-0-0-|-0-0-0-0-|-0-0-0-0-| 
d |--------|---------|---------|---------| 
a |2-2-2-2-|-9-7-7-7-|-5-7-7-7-|-2-2-2-2-| 
e |--------|---------|---------|---------| 
 
This is my best King carnivore, 
this is my scream, s'just a dull roar 
this is my hand I've shown you before. 
 
Other bit 
 
  Em      G       C       A 
EADGBe  EADGBe  EADGBe  EADGBe 
--X--X  --X--X  --X--X  ---X-X 
||||||  ||||||  ||||1|  |||||| 
|1||||  |1||||  ||||||  ||1|2| 
||||||  2|||||  |3||||  |||||| 
 
 
Em                G 
Over the pain and I'm past the bleedin'  
 
C                       A 
its not the tracks, its where they're leading. 
 
Other, other bit 
 
G              F#/E          C           F#/C 
Hasn't been so bad here/yeah I'll do it again 
error of my ways, maybe one of these days 
Hasn't been so bad here/yeah I'll do it again 
error of my ways, maybe one of these days 
 
      G              F#/E             C    F#/C  
Its irrelevant im an elephant she's a mouse 
 
      G              F#/E             C    F#/C  G 
its irrelevant im an elephant she's a mouse... 
 
 
'Fight the power and empty that mailbox' 
		- me in a dorky mood 
___________________________________ 
The MOOSIC site        (australian) 
http://www.dot.net.au/~verve/moosic/ 
indie pop, smooth & creamy  
___________________________________ 
 
 
 

roll up this ad to continue

share this page

See Also: