E-Chords
Sleipnir

Verlorene Trume(Tabs)

Sleipnir

roll up this ad to continue

Key: Em
guitar tuning: standard EBGDAE 

(played 3x) 
Em                               C 
e------------0-------0~----------------------0------0~-----------------||* 
b----------0---0-------0---0---------------1---1------1---1------------||* 
g--------0-------0-------0---------------0-------0------0--------------||* 
d---2-------------------------------0--------------------------0--4--2-||* 
a---2--------------------------0--2---3----------------------3---------||* 
E---0------------------------------------------------------------------||* 

fourth time: 

Em                               C 
e------------0-------0~-------------------------------------| 
b----------0---0-------0---0--------------------------------| 
g--------0-------0-------0----------------------------------| 
d---2-------------------------------0-----------------------| 
a---2--------------------------0--2---3---------------------| 
E---0--------------------------------------------0--3--2--0-| 

griff: Em C (4x) | D C (2x) | G D Em C | G D Em D C Em D C 
share this page

See Also: