E-Chords
Sleigh Bells

Young Legends(Tabs)

Sleigh Bells

roll up this ad to continue

(Intro/Verse) This Riff is played throughout the song. 
e|----------------------------------------| 
B|----------------------------------------| 
G|-10-10--10-7-7--7--2-2--2--2-2--2-------| 
D|-10-10--10-7-7--7--2-2--2--2-2--2-------| 
A|-8--8---8--5-5--5--0-0--0--0-0--0-------| 
E|----------------------------------------| 

(Fill) This is played right before and after the Chorus 
e|----------------------------------------| 
B|----------------------------------------| 
G|-5-5-5--5--5--5-5-5--5--5-5-5-5---------| 
D|-5-5-5--5--5--5-5-5--5--5-5-5-5---------| 
A|-3-3-3--3--3--3-3-3--3--3-3-3-3---------| 
E|----------------------------------------| 
share this page

See Also: