E-Chords
Sleigh Bells

You Don't Get Me Twice(Tabs)

Sleigh Bells

roll up this ad to continue

Key: C
(Verse) 
e|----------------------------------------------| 
B|----------------------------------------------| 
G|----------------------------------------------|X2 
D|-x-x5-5-x-5-5--55-xx-5-5-x--------------------| 
A|-x-x5-5-x-5-5--55-xx-5-5-x--2-4-4-3-5-5-------| 
E|-x-x3-3-x-3-3--33-xx-3-3-x--------------------| 
(This Part Varies Listen to the song for rhythm) 


(Chorus)-(In an interview Derek Miller says he finger picks this part- If you want to be  
more accurate.) 
(listen to the song for Chord Changes) 
   C        Bb       A       C         Bb     A 
e|-8--------6--------5-------8---------6------5----| 
B|-8--------6--------5-------8---------6------5----| 
G|-9--------7--------6-------9---------7------6----| 
D|-10-------8--------7-------10--------8------7----| 
A|-10-------8--------7-------10--------8------7----| 
E|-8--------6--------5-------8---------6------5----| 


Play Verse x2 
Play Chorus 
Play Verse x2 
Play Chorus 
Play Verse X2 
Play Chorus 


(Solo-Thing) 
e|---------------------------------------------------------------------------| 
B|---------------------------------------------------------------------------| 
G|--12--12-12-12--12--12--12-12-12--12--12-12-12-----------------------------| 
D|--12--12-12-12--12--12--12-12-12--12--12-12-12-----------------------------|X2 
A|--10--10-10-10--10--10--10-10-10--10--10-10-10--2-4-4-3-5-5----------------| 
E|---------------------------------------------------------------------------| 


(Bridge)(Palm Muted) 
e|---------------------------------------------------------------------------| 
B|---------------------------------------------------------------------------| 
G|---------------------------------------------------------------------------| 
D|-5-5-5-5-5-5-5-5-6-6-6-6-6-6-6-6-7-7-7-7-7-7-7-7-8-8-8-8-8-8-8-8-----------|X2 
A|-5-5-5-5-5-5-5-5-6-6-6-6-6-6-6-6-7-7-7-7-7-7-7-7-8-8-8-8-8-8-8-8-----------| 
E|-3-3-3-3-3-3-3-3-4-4-4-4-4-4-4-4-5-5-5-5-5-5-5-5-6-6-6-6-6-6-6-6-----------| 

Play Chorus X2 


************************************ 

| /   slide up 
| \   slide down 
| h   hammer-on 
| p   pull-off 
| ~   vibrato 
| +   harmonic 
| x   Mute note 
| b   Bend 
| pb  Pre-bend 
| br  Bend release 
| pbr Pre-bend release 
| brb Bend release bend 

************************************ 
share this page

See Also: