E-Chords
Sleigh Bells

Tiger Kit(Tabs)

Sleigh Bells

roll up this ad to continue

(Intro/Verse) 
e|--------------------------------------------| 
B|--------------------------------------------| 
G|-4-2--2--2-2--2--4-2--2--2-2----------------| 
D|-4-2--2--2-2--2--4-2--2--2-2--5-2-----------|x3 
A|-2-0--0--0-0--0--2-0--0--0-0--5-2-----------| 
E|------------------------------3-0-----------| 


e|-----------------------------------| 
B|-----------------------------------| 
G|-4-2--2--2-2--2--4-2--2------------| 
D|-4-2--2--2-2--2--4-2--2------------| 
A|-2-0--0--0-0--0--2-0--0------------| 
E|------------------------2^(MOOOO)--| 

e|--------------------------------------------| 
B|--------------------------------------------| 
G|-4-2--2--2-2--2--4-2--2--2-2----------------| 
D|-4-2--2--2-2--2--4-2--2--2-2--5-2-----------|x4 
A|-2-0--0--0-0--0--2-0--0--0-0--5-2-----------| 
E|------------------------------3-0-----------| 

(Chorus) 
e|----------------------------------| 
B|----------------------------------| 
G|-7-7--7--4-4-4--------------------| 
D|-7-7--7--4-4-4--5-5--5--4-4-4-----|X3 
A|-5-5--5--2-2-2--5-5--5--4-4-4-----| 
E|----------------3-3--3--2-2-2-----| 

e|-------------------------------------| 
B|-------------------------------------| 
G|-7-7--7--4-4-4-----------------------| 
D|-7-7--7--4-4-4--5-5--5--4~~~---------| 
A|-5-5--5--2-2-2--5-5--5--4~~~---------| 
E|----------------3-3--3--2~~~---------| 

Chick-Uh... 

e|--------------------------------------------| 
B|--------------------------------------------| 
G|-4-2--2--2-2--2--4-2--2--2-2----------------| 
D|-4-2--2--2-2--2--4-2--2--2-2--5-2-----------| 
A|-2-0--0--0-0--0--2-0--0--0-0--5-2-----------| 
E|------------------------------3-0-----------| 


e|-----------------------------------| 
B|-----------------------------------| 
G|-4-2--2--2-2--2--4-2--2------------| 
D|-4-2--2--2-2--2--4-2--2------------| 
A|-2-0--0--0-0--0--2-0--0------------| 
E|------------------------2^(MOOOO)--| 

(verse 2) 
e|--------------------------------------------| 
B|--------------------------------------------| 
G|-4-2--2--2-2--2--4-2--2--2-2----------------| 
D|-4-2--2--2-2--2--4-2--2--2-2--5-2-----------| 
A|-2-0--0--0-0--0--2-0--0--0-0--5-2-----------| 
E|------------------------------3-0-----------| 

e|--------------------------| 
B|--------------------------| 
G|-4-2--2--2-2--2--4-2--2---| 
D|-4-2--2--2-2--2--4-2--2---| 
A|-2-0--0--0-0--0--2-0--0---| 
E|--------------------------| 

Another memories... 

e|--------------------------------------------| 
B|--------------------------------------------| 
G|-4-2--2--2-2--2--4-2--2--2-2----------------| 
D|-4-2--2--2-2--2--4-2--2--2-2--5-2-----------|x2 
A|-2-0--0--0-0--0--2-0--0--0-0--5-2-----------| 
E|------------------------------3-0-----------| 


Play the Chorus again. 


(Solo) 
e|----------------------------------------------------------------------| 
B|-----------------------------4p2p0-4p2p0------------------------------| 
G|-----4-2--2--2x4x5--4-2--2x2-------------4-2--2--2x4x5-4-2-2xxxxxx----| 
D|-----4-2--2--2x4x5--4-2--2x2-------------4-2--2--2x4x5-4-2-2xxxxxx----| 
A|-----2-0--0--0x2x3--2-0--0x0-------------2-0--0--0x2x3-2-0-0xxxxxx----| 
E|-2^/------------------------------------------------------------------| 

e|-------------------------------------------------------------| 
B|-------------------2^--4^------------------------------------| 
G|-5-4x4-6-7--x5-4x4---------5-4x4-6-7--x5-4x4-----------------| 
D|-5-4x4-6-7--x5-4x4---------5-4x4-6-7--x5-4x4-----------------| 
A|-3-2x2-4-5--x3-2x2---------3-2x2-4-5--x3-2x2-----------------| 
E|----------------------------------------------2^~~~~~~~------| 

(Outro) 
e|--------------------------------------| 
B|-------------------------2^--2^-------| 
G|--4-2--2--2-2--2--4-2--2--------------| 
D|--4-2--2--2-2--2--4-2--2--------------|X4 
A|--2-0--0--0-0--0--2-0--0--------------| 
E|--------------------------------------| 

e|------| 
B|------| 
G|------| 
D|------| 
A|------| 
E|--2/--| 

So make like a banana... 

e|-----------| 
B|-----------| 
G|-----2~~~--| 
D|--5--2~~~--|...And SPLIT! 
A|--5--0~~~--| 
E|--3--------| 
share this page

See Also: