E-Chords
Sleigh Bells

Minnie(Tabs)

Sleigh Bells

roll up this ad to continue

(Main Riff) played Throughout the song :) 
e|-----------------------------------------| 
B|-----------------------------------------| 
G|-7-7-x-7--5-5-5--8-8-x-8--2-2-2----------| 
D|-7-7-x-7--5-5-5--8-8-x-8--2-2-2----------| 
A|-5-5-x-5--3-3-3--6-6-x-6--0-0-0----------| 
E|-----------------------------------------| 

Just play the main riff slower during the verses. 

(Chorus)'Minnie Minnie go count your pennies...' 
e|---------------------------------| 
B|---------------------------------| 
G|-2-------5-2-------7-------------| 
D|-2-------5-2-------7-------------| 
A|-0-------3-0-------5-------------| 
E|---------------------------------| 
share this page

See Also: