E-Chords
Sleigh Bells

Comeback Kid(Tabs)

Sleigh Bells

roll up this ad to continue

Key: G
intro: 
(guitar 1 only:) 
e|---------------------------------|---------------------------------| 
B|---------------------------------|---------------------------------| 
G|---------------------------------|---------------------------------| 
D|-5---5-----5---5-----5-----5-----|-5---5-5---5-----5---5-5---5-----| 
A|-5---5-----5---5-----5-----5-----|-5---5-5---5-----5---5-5---5-----| 
E|-3---3-----3---3-----3-----3-----|-3---3-3---3-----3---3-3---3-----| 


verse: 
e|-----------------|-----------------|-----------------|-----------------| 
B|-----------------|-----------------|-----------------|-----------------| 
G|-----------------|-4-4-4-4---4-4-4-|-----------------|-----------------| 
D|-5-5-4-5---5-5-5-|-4-4-4-4---4-4-4-|-3-3-3-3---3-3-3-|-7-7-7-7-7\6-6-6-| 
A|-5-5-4-5---5-5-5-|-2-2-2-2---2-2-2-|-3-3-3-3---3-3-3-|-7-7-7-7-7\6-6-6-| 
E|-3-3-2-3---3-3-3-|-----------------|-1-1-1-1---1-1-1-|-5-5-5-5-5\4-4-4-| 
-|                 |                 |                 |                 | 
e|-----------------|-----------------|-----------------|-----------------| 
B|-----------------|-----------------|-----------------|-----------------| 
G|-12121212--121212|-----------------|-10101010--101010|-----------------| 
D|-12121212--121212|-9-9-9-9---9-9-9-|-10101010--101010|-7-7-7-7-7\6-6-6-| 
A|-10101010--101010|-9-9-9-9---9-9-9-|-8-8-8-8---8-8-8-|-7-7-7-7-7\6-6-6-| 
E|-----------------|-7-7-7-7---7-7-7-|-----------------|-5-5-5-5-5\4-4-4-| 


e|-----------------|-----------------|-----------------|-----------------| 
B|-----------------|-----------------|-----------------|-----------------| 
G|-----------------|-4-4-4-4---4-4-4-|-----------------|-----------------| 
D|-5-5-5-5---5-5-5-|-4-4-4-4---4-4-4-|-3-3-3-3---3-3-3-|-7-7-7-7-7\6-6-6-| 
A|-5-5-5-5---5-5-5-|-2-2-2-2---2-2-2-|-3-3-3-3---3-3-3-|-7-7-7-7-7\6-6-6-| 
E|-3-3-3-3---3-3-3-|-----------------|-1-1-1-1---1-1-1-|-5-5-5-5-5\4-4-4-| 
-|                 |                 |                 |                 | 
e|-----------------|-----------------|-----------------|-----------------| 
B|-----------------|-----------------|-----------------|-----------------| 
G|-12121212--121212|-----------------|-10101010--101010|-----------------| 
D|-12121212--121212|-9-9-9-9---9-9-9-|-10101010--101010|-7-7-7-7-7\6-6-6-| 
A|-10101010--101010|-9-9-9-9---9-9-9-|-8-8-8-8---8-8-8-|-7-7-7-7-7\6-6-6-| 
E|-----------------|-7-7-7-7---7-7-7-|-----------------|-5-5-5-5-5\4-4-4-| 


e|-----------------|-----------------|-----------------|-----------------| 
B|-----------------|-----------------|-----------------|-----------------| 
G|-----------------|-7-7-7-7---7-7-7-|-7/9-9-9---9-9-9-|-9\8-8-8---8-8-8-| 
D|-5-5-5-5---5-5-5-|-7-7-7-7---7-7-7-|-7/9-9-9---9-9-9-|-9\8-8-8---8-8-8-| 
A|-5-5-5-5---5-5-5-|-5-5-5-5---5-5-5-|-5/7-7-7---7-7-7-|-7\6-6-6---6-6-6-| 
E|-3-3-3-3---3-3-3-|-----------------|-----------------|-----------------| 
-|                 |                 |                 |                 | 
e|-----------------|-----------------|-----------------|-----------------| 
B|-----------------|-----------------|-----------------|-----------------| 
G|-12121212--121212|-7-7-7-7---7-7-7-|-7/9-9-9---9-9-9-|-9\8-8-8---8-8-8-| 
D|-12121212--121212|-7-7-7-7---7-7-7-|-7/9-9-9---9-9-9-|-9\8-8-8---8-8-8-| 
A|-10101010--101010|-5-5-5-5---5-5-5-|-5/7-7-7---7-7-7-|-7\6-6-6---6-6-6-| 
E|-----------------|-----------------|-----------------|-----------------| 


e|-----------------|-----------------|-----------------|-----------------| 
B|-----------------|-----------------|-----------------|-----------------| 
G|-----------------|-7-7-7-7---7-7-7-|-7/9-9-9---9-9-9-|-10101010--101010| 
D|-5-5-5-5---5-5-5-|-7-7-7-7---7-7-7-|-7/9-9-9---9-9-9-|-10101010--101010| 
A|-5-5-5-5---5-5-5-|-5-5-5-5---5-5-5-|-5/7-7-7---7-7-7-|-8-8-8-8---8-8-8-| 
E|-3-3-3-3---3-3-3-|-----------------|-----------------|-----------------| 
-|                 |                 |                 |                 | 
e|-----------------|-----------------|-----------------|-----------------| 
B|-----------------|-----------------|-----------------|-----------------| 
G|-12121212--121212|-7-7-7-7---7-7-7-|-7/9-9-9---9-9-9-|-10101010--101010| 
D|-12121212--121212|-7-7-7-7---7-7-7-|-7/9-9-9---9-9-9-|-10101010--101010| 
A|-10101010--101010|-5-5-5-5---5-5-5-|-5/7-7-7---7-7-7-|-8-8-8-8---8-8-8-| 
E|-----------------|-----------------|-----------------|-----------------| 


riff 1: 
e|-----------------|-----------------|-----------------|-----------------| 
B|-----------------|-----------------|-----------------|-----------------| 
G|-----------------|-4-4-4-4---4-4-4-|-----------------|-----------------| 
D|-5-5-4-5---5-5-5-|-4-4-4-4---4-4-4-|-3-3-3-3---3-3-3-|-7-7-7-7-7\6-6-6-| 
A|-5-5-4-5---5-5-5-|-2-2-2-2---2-2-2-|-3-3-3-3---3-3-3-|-7-7-7-7-7\6-6-6-| 
E|-3-3-2-3---3-3-3-|-----------------|-1-1-1-1---1-1-1-|-5-5-5-5-5\4-4-4-| 
-|                 |                 |                 |                 | 
e|-----------------|-----------------|-----------------|-----------------| 
B|-----------------|-----------------|-----------------|-----------------| 
G|-12121212--121212|-----------------|-10101010--101010|-----------------| 
D|-12121212--121212|-9-9-9-9---9-9-9-|-10101010--101010|-7-7-7-7-7\6-6-6-| 
A|-10101010--101010|-9-9-9-9---9-9-9-|-8-8-8-8---8-8-8-|-7-7-7-7-7\6-6-6-| 
E|-----------------|-7-7-7-7---7-7-7-|-----------------|-5-5-5-5-5\4-4-4-| 


e|-----------------|-----------------|-----------------|-----------------| 
B|-----------------|-----------------|-----------------|-----------------| 
G|-----------------|-4-4-4-4---4-4-4-|-----------------|-----------------| 
D|-5-5-5-5---5-5-5-|-4-4-4-4---4-4-4-|-3-3-3-3---3-3-3-|-7-7-7-7-7\6-6-6-| 
A|-5-5-5-5---5-5-5-|-2-2-2-2---2-2-2-|-3-3-3-3---3-3-3-|-7-7-7-7-7\6-6-6-| 
E|-3-3-3-3---3-3-3-|-----------------|-1-1-1-1---1-1-1-|-5-5-5-5-5\4-4-4-| 
-|                 |                 |                 |                 | 
e|-----------------|-----------------|-----------------|-----------------| 
B|-----------------|-----------------|-----------------|-----------------| 
G|-12121212--121212|-----------------|-10101010--101010|-----------------| 
D|-12121212--121212|-9-9-9-9---9-9-9-|-10101010--101010|-7-7-7-7-7\6-6-6-| 
A|-10101010--101010|-9-9-9-9---9-9-9-|-8-8-8-8---8-8-8-|-7-7-7-7-7\6-6-6-| 
E|-----------------|-7-7-7-7---7-7-7-|-----------------|-5-5-5-5-5\4-4-4-| 


chorus: 
e|-----------------|-----------------|-----------------|-----------------| 
B|-----------------|-----------------|-----------------|-----------------| 
G|-----------------|-7-7-7-7---7-7-7-|-9-9-9-9---9-9-9-|-8-8-8-8---8-8-8-| 
D|-5-5-5-5---5-5-5-|-7-7-7-7---7-7-7-|-9-9-9-9---9-9-9-|-8-8-8-8---8-8-8-| 
A|-5-5-5-5---5-5-5-|-5-5-5-5---5-5-5-|-7-7-7-7---7-7-7-|-6-6-6-6---6-6-6-| 
E|-3-3-3-3---3-3-3-|-----------------|-----------------|-----------------| 
-|                 |                 |                 |                 | 
e|-----------------|-----------------|-----------------|-----------------| 
B|-----------------|-----------------|-----------------|-----------------| 
G|-12121212--121212|-7-7-7-7---7-7-7-|-9-9-9-9---9-9-9-|-8-8-8-8---8-8-8-| 
D|-12121212--121212|-7-7-7-7---7-7-7-|-9-9-9-9---9-9-9-|-8-8-8-8---8-8-8-| 
A|-10101010--101010|-5-5-5-5---5-5-5-|-7-7-7-7---7-7-7-|-6-6-6-6---6-6-6-| 
E|-----------------|-----------------|-----------------|-----------------| 


e|-----------------|-----------------|-----------------|-----------------| 
B|-----------------|-----------------|-----------------|-----------------| 
G|-----------------|-7-7-7-7---7-7-7-|-9-9-9-9---9-9-9-|-10101010--101010| 
D|-5-5-5-5---5-5-5-|-7-7-7-7---7-7-7-|-9-9-9-9---9-9-9-|-10101010--101010| 
A|-5-5-5-5---5-5-5-|-5-5-5-5---5-5-5-|-7-7-7-7---7-7-7-|-8-8-8-8---8-8-8-| 
E|-3-3-3-3---3-3-3-|-----------------|-----------------|-----------------| 
-|                 |                 |                 |                 | 
e|-----------------|-----------------|-----------------|-----------------| 
B|-----------------|-----------------|-----------------|-----------------| 
G|-12121212--121212|-7-7-7-7---7-7-7-|-9-9-9-9---9-9-9-|-10101010--101010| 
D|-12121212--121212|-7-7-7-7---7-7-7-|-9-9-9-9---9-9-9-|-10101010--101010| 
A|-10101010--101010|-5-5-5-5---5-5-5-|-7-7-7-7---7-7-7-|-8-8-8-8---8-8-8-| 
E|-----------------|-----------------|-----------------|-----------------| 



bridge: 
e|-----------------|-----------------|-----------------|-----------------| 
B|-0-----------5---|-------------6---|-------------7---|-----------------| 
G|-----------------|-5---------------|-6---------------|-7---------------| 
D|-----------------|-----------------|-----------------|-----------------| 
A|-----------------|-----------------|-----------------|-----------------| 
E|-----------------|-----------------|-----------------|-----------------| 
-|                 |                 |                 |                 | 
e|-3---------------|-----------------|-1---------------|-3---------------| 
B|-0---------------|-1---------------|-0---------------|-3---------------| 
G|-0---------------|-2---------------|-----------------|-4---------------| 
D|-0---------------|-----------------|-----------------|-5---------------| 
A|-----------------|-----------------|-----------------|-----------------| 
E|-----------------|-----------------|-----------------|-----------------| 
I'm not exactly sure about the chords on the bridge.  They're odd.  Any suggestions  
on this part are welcome. 


bridge 2: 
(guitar 3:) 
e|----/7-----------|----/7-----------|----/7-----------|----/7---8---7---| 
B|---------8\7-8---|---------8\6-8---|---------8\6-8---|-----------------| 
G|-----------------|-----------------|-----------------|-----------------| 
D|-----------------|-----------------|-----------------|-----------------| 
A|-----------------|-----------------|-----------------|-----------------| 
E|-----------------|-----------------|-----------------|-----------------| 
-| (guitar 1:)     |                 |                 |                 | 
e|----/10--7\5-7---|----/10--7\5-7---|----/10--7\5-7---|----/10--12--10--| 
B|-----------------|-----------------|-----------------|-----------------| 
G|-----------------|-----------------|-----------------|-----------------| 
D|-----------------|-----------------|-----------------|-----------------| 
A|-----------------|-----------------|-----------------|-----------------| 
E|-----------------|-----------------|-----------------|-----------------| 
-| (guitar 2:)     |                 |                 |                 | 
e|----/7-----------|----/7-----------|----/7-----------|-----------------| 
B|---------8\7-8---|---------8\6-8---|---------8\6-8---|-----------------| 
G|-----------------|-----------------|-----------------|-----7---9---7---| 
D|-----------------|-----------------|-----------------|-----------------| 
A|-----------------|-----------------|-----------------|-----------------| 
E|-----------------|-----------------|-----------------|-----------------| 
 
share this page

See Also: