E-Chords
Sleigh Bells

Bitter Rivals(Tabs)

Sleigh Bells

roll up this ad to continue

This is my first tab... so my timing may be a bit off, I would suggest listening to the  
song for chord changes. Have Fun Playing This Song! :) 
(Intro)(Acoustic Guitar) 
e|----------------------------------------------------------------| 
B|----------------------------------------------------------------| 
G|--2---2-2-2---2-2-2--2----2-2-2---2-2-7--7-7-7---7-7-2---2-2-2--| 
D|--2---2-2-2---2-2-2--2----2-2-2---2-2-7--7-7-7---7-7-2---2-2-2--| 
A|--0---0-0-0---0-0-0--0----0-0-0---0-0-5--5-5-5---5-5-0---0-0-0--| 
E|----------------------------------------------------------------| 
(Intro Cont.) 
e|----------------------------------------| 
B|----------------------------------------| 
G|--2-2-9---9-10-7---8-9-2---2-3----------| 
D|--2-2-9---9-10-7---8-9-2---2-3-6--------| 
A|--0-0-7---7-8--5---6-7-0---0-1-6--------| 
E|-------------------------------4--------| 
(Verse)X2 
e|--------------------------------------------------------------------------| 
B|--------------------------------------------------------------------------| 
G|--2-2---2-2---2-2---2-2---2-2---2-2---2-2-2--2-2-2----7-7--7-7--7-7--7-7--| 
D|--2-2---2-2---2-2---2-2---2-2---2-2---2-2-2--2-2-2----7-7--7-7--7-7--7-7--| 
A|--0-0---0-0---0-0---0-0---0-0---0-0---0-0-0--0-0-0----5-5--5-5--5-5--5-5--| 
E|--------------------------------------------------------------------------| 

e|--------------------------------------| 
B|--------------------------------------| 
G|-7-7--7-7--7-7--7-7--7-7-7------------| 
D|-7-7--7-7--7-7--7-7--7-7-7------------| 
A|-5-5--5-5--5-5--5-5--5-5-5------------| 
E|--------------------------------------| 

Chorus(no guitar) 

Verse X2 

Chorus(no guitar) 

(Final Instrumental Verse)X2 
e|-----------------------------------------------------------------| 
B|-----------------------------------------------------------------| 
G|--2-2--2-4-5-6---2-2--2-2-6-5-4--2-2-2-4-5-6--2-2--2-2-6-5-4-----| 
D|--2-2--2-4-5-6---2-2--2-2-6-5-4--2-2-2-4-5-6--2-2--2-2-6-5-4-----| 
A|--0-0--0-2-3-4---0-0--0-0-4-3-2--0-0-0-2-3-4--0-0--0-0-4-3-2-----| 
E|-----------------------------------------------------------------| 

e|---------------------------------------------------------------------| 
B|---------------------------------------------------------------------| 
G|--7-7--7-8-9-10---7-7--7-7-10-9-8---7-7--7-8-9-10--7-7--7-7-10-9-8---| 
D|--7-7--7-8-9-10---7-7--7-7-10-9-8---7-7--7-8-9-10--7-7--7-7-10-9-8---| 
A|--5-5--5-6-7-8----5-5--5-5-8--7-6---5-5--5-6-7-8---5-5--5-5-8--7-6---| 
E|---------------------------------------------------------------------| 

Finally End With: 
e|--------| 
B|--------| 
G|---2----| 
D|---2----| 
A|---0----| 
E|--------| 
share this page

See Also: