E-Chords
Sleeze Beez

When The Brains Go To The Balls(Tabs)

Sleeze Beez

roll up this ad to continue

Key: B


Intro: (also Chorus) 
E|-------------------------------------------------|       E|--------| 
B|--------------------------8-8p7-7----------------|       B|--------| 
G|--------2-----5-----7-----7-7---7---5---2--------|   x2  G|---2\x--| 
D|--------2-----5-----7---------------5---2--------|       D|---2\x--| 
A|--12/0----0-0---0-0-----------------3---0--------|       A|---0\x--| 
E|----------.-.---.-.------------------------------|       E|--------| 
             

Verse:  
E|-------------------------------------| 
B|-------------------------------------| 
G|-------------------------------------|  
D|----------------7-------7------------|  x5 
A|------------7-7-5---7-7-5---7--5-7---| 
E|------------5-5-----5-5-----5--3-5---| 
  'Turn It Up' 


Pre-Chorus 
E|--0-------------------------------------------------| 
B|--0------------------------4------------------------| 
G|--1------------------------4------------------------| 
D|--2------------------------4------------------------| 
A|--2------------------------2------------------------| 
E|--0-------------------------------------------------| 
   'Turn It Up. Turn Around'  'You Got Me. Spellbound' 



Chorus: 
E|--------------------------------------------------------|        
B|--------------------------8-8p7-7-----------------------|       
G|--------2-----5-----7-----7-7---7---5----------2--------|   x2   
D|--------2-----5-----7---------------5----------2--------|        
A|--12/0----0-0---0-0-----------------3----------0--------|        
E|----------.-.---.-.-------------------------------------|        
            . .   . . 
'When the Brains-To---Balls           Nothing     Nothing  
               go  the              can stop us    at all' 

E|-------------------------------------| 
B|-------------------------------------| 
G|-------------------------------------|  
D|----------------7-------7------------|  
A|------------7-7-5---7-7-5---7--5-7---| 
E|------------5-5-----5-5-----5--3-5---| etc. 



During the solo the second guitar plays E and B 
share this page

See Also: